  0
SECTION
  2
HEADER
  9
$ACADVER
  1
AC1027
  9
$ACADMAINTVER
 70
    55
  9
$DWGCODEPAGE
  3
ANSI_1252
  9
$LASTSAVEDBY
  1
td
  9
$REQUIREDVERSIONS
160
                 0
  9
$INSBASE
 10
0.0
 20
0.0
 30
0.0
  9
$EXTMIN
 10
1.000000000000000E+20
 20
1.000000000000000E+20
 30
1.000000000000000E+20
  9
$EXTMAX
 10
0.0
 20
0.0
 30
0.0
  9
$LIMMIN
 10
0.0
 20
0.0
  9
$LIMMAX
 10
42.0
 20
29.7
  9
$ORTHOMODE
 70
     0
  9
$REGENMODE
 70
     1
  9
$FILLMODE
 70
     1
  9
$QTEXTMODE
 70
     0
  9
$MIRRTEXT
 70
     0
  9
$LTSCALE
 40
0.0125
  9
$ATTMODE
 70
     1
  9
$TEXTSIZE
 40
2.0
  9
$TRACEWID
 40
1.0
  9
$TEXTSTYLE
  7
Romans 2.0 mm
  9
$CLAYER
  8
0
  9
$CELTYPE
  6
ByLayer
  9
$CECOLOR
 62
   256
  9
$CELTSCALE
 40
1.0
  9
$DISPSILH
 70
     1
  9
$DIMSCALE
 40
0.0
  9
$DIMASZ
 40
1.5
  9
$DIMEXO
 40
0.0
  9
$DIMDLI
 40
5.0
  9
$DIMRND
 40
0.005
  9
$DIMDLE
 40
1.25
  9
$DIMEXE
 40
1.25
  9
$DIMTP
 40
0.0
  9
$DIMTM
 40
0.0
  9
$DIMTXT
 40
2.0
  9
$DIMCEN
 40
0.25
  9
$DIMTSZ
 40
0.0
  9
$DIMTOL
 70
     0
  9
$DIMLIM
 70
     0
  9
$DIMTIH
 70
     0
  9
$DIMTOH
 70
     0
  9
$DIMSE1
 70
     0
  9
$DIMSE2
 70
     0
  9
$DIMTAD
 70
     1
  9
$DIMZIN
 70
    12
  9
$DIMBLK
  1
ArchTick
  9
$DIMASO
 70
     1
  9
$DIMSHO
 70
     1
  9
$DIMPOST
  1

  9
$DIMAPOST
  1

  9
$DIMALT
 70
     0
  9
$DIMALTD
 70
     2
  9
$DIMALTF
 40
25.4
  9
$DIMLFAC
 40
1.0
  9
$DIMTOFL
 70
     1
  9
$DIMTVP
 40
0.0
  9
$DIMTIX
 70
     1
  9
$DIMSOXD
 70
     0
  9
$DIMSAH
 70
     0
  9
$DIMBLK1
  1

  9
$DIMBLK2
  1

  9
$DIMSTYLE
  2
Bem 2.0 mm
  9
$DIMCLRD
 70
     0
  9
$DIMCLRE
 70
     0
  9
$DIMCLRT
 70
     0
  9
$DIMTFAC
 40
1.0
  9
$DIMGAP
 40
1.0
  9
$DIMJUST
 70
     0
  9
$DIMSD1
 70
     0
  9
$DIMSD2
 70
     0
  9
$DIMTOLJ
 70
     1
  9
$DIMTZIN
 70
     0
  9
$DIMALTZ
 70
     0
  9
$DIMALTTZ
 70
     0
  9
$DIMUPT
 70
     0
  9
$DIMDEC
 70
     3
  9
$DIMTDEC
 70
     3
  9
$DIMALTU
 70
     2
  9
$DIMALTTD
 70
     2
  9
$DIMTXSTY
  7
Bemassung
  9
$DIMAUNIT
 70
     0
  9
$DIMADEC
 70
     2
  9
$DIMALTRND
 40
0.0
  9
$DIMAZIN
 70
     0
  9
$DIMDSEP
 70
    46
  9
$DIMATFIT
 70
     3
  9
$DIMFRAC
 70
     0
  9
$DIMLDRBLK
  1

  9
$DIMLUNIT
 70
     2
  9
$DIMLWD
 70
    -2
  9
$DIMLWE
 70
    -2
  9
$DIMTMOVE
 70
     2
  9
$DIMFXL
 40
10.0
  9
$DIMFXLON
 70
     1
  9
$DIMJOGANG
 40
0.7853981633974483
  9
$DIMTFILL
 70
     0
  9
$DIMTFILLCLR
 70
     0
  9
$DIMARCSYM
 70
     0
  9
$DIMLTYPE
  6

  9
$DIMLTEX1
  6

  9
$DIMLTEX2
  6

  9
$DIMTXTDIRECTION
 70
     0
  9
$LUNITS
 70
     2
  9
$LUPREC
 70
     4
  9
$SKETCHINC
 40
1.0
  9
$FILLETRAD
 40
0.0
  9
$AUNITS
 70
     0
  9
$AUPREC
 70
     2
  9
$MENU
  1
.
  9
$ELEVATION
 40
0.0
  9
$PELEVATION
 40
0.0
  9
$THICKNESS
 40
0.0
  9
$LIMCHECK
 70
     0
  9
$CHAMFERA
 40
0.0
  9
$CHAMFERB
 40
0.0
  9
$CHAMFERC
 40
0.0
  9
$CHAMFERD
 40
0.0
  9
$SKPOLY
 70
     0
  9
$TDCREATE
 40
2459513.685212049
  9
$TDUCREATE
 40
2459513.601878715
  9
$TDUPDATE
 40
2459513.690395012
  9
$TDUUPDATE
 40
2459513.607061678
  9
$TDINDWG
 40
0.0021242477
  9
$TDUSRTIMER
 40
0.0021242477
  9
$USRTIMER
 70
     1
  9
$ANGBASE
 50
0.0
  9
$ANGDIR
 70
     0
  9
$PDMODE
 70
    35
  9
$PDSIZE
 40
0.1
  9
$PLINEWID
 40
0.0
  9
$SPLFRAME
 70
     0
  9
$SPLINETYPE
 70
     6
  9
$SPLINESEGS
 70
     8
  9
$HANDSEED
  5
1F6
  9
$SURFTAB1
 70
     6
  9
$SURFTAB2
 70
     6
  9
$SURFTYPE
 70
     6
  9
$SURFU
 70
     6
  9
$SURFV
 70
     6
  9
$UCSBASE
  2

  9
$UCSNAME
  2

  9
$UCSORG
 10
0.0
 20
0.0
 30
0.0
  9
$UCSXDIR
 10
1.0
 20
0.0
 30
0.0
  9
$UCSYDIR
 10
0.0
 20
1.0
 30
0.0
  9
$UCSORTHOREF
  2

  9
$UCSORTHOVIEW
 70
     0
  9
$UCSORGTOP
 10
0.0
 20
0.0
 30
0.0
  9
$UCSORGBOTTOM
 10
0.0
 20
0.0
 30
0.0
  9
$UCSORGLEFT
 10
0.0
 20
0.0
 30
0.0
  9
$UCSORGRIGHT
 10
0.0
 20
0.0
 30
0.0
  9
$UCSORGFRONT
 10
0.0
 20
0.0
 30
0.0
  9
$UCSORGBACK
 10
0.0
 20
0.0
 30
0.0
  9
$PUCSBASE
  2

  9
$PUCSNAME
  2

  9
$PUCSORG
 10
0.0
 20
0.0
 30
0.0
  9
$PUCSXDIR
 10
1.0
 20
0.0
 30
0.0
  9
$PUCSYDIR
 10
0.0
 20
1.0
 30
0.0
  9
$PUCSORTHOREF
  2

  9
$PUCSORTHOVIEW
 70
     0
  9
$PUCSORGTOP
 10
0.0
 20
0.0
 30
0.0
  9
$PUCSORGBOTTOM
 10
0.0
 20
0.0
 30
0.0
  9
$PUCSORGLEFT
 10
0.0
 20
0.0
 30
0.0
  9
$PUCSORGRIGHT
 10
0.0
 20
0.0
 30
0.0
  9
$PUCSORGFRONT
 10
0.0
 20
0.0
 30
0.0
  9
$PUCSORGBACK
 10
0.0
 20
0.0
 30
0.0
  9
$USERI1
 70
     0
  9
$USERI2
 70
     0
  9
$USERI3
 70
     0
  9
$USERI4
 70
     0
  9
$USERI5
 70
     0
  9
$USERR1
 40
0.0
  9
$USERR2
 40
0.0
  9
$USERR3
 40
0.0
  9
$USERR4
 40
0.0
  9
$USERR5
 40
0.0
  9
$WORLDVIEW
 70
     1
  9
$SHADEDGE
 70
     3
  9
$SHADEDIF
 70
    70
  9
$TILEMODE
 70
     1
  9
$MAXACTVP
 70
    64
  9
$PINSBASE
 10
0.0
 20
0.0
 30
0.0
  9
$PLIMCHECK
 70
     0
  9
$PEXTMIN
 10
1.000000000000000E+20
 20
1.000000000000000E+20
 30
1.000000000000000E+20
  9
$PEXTMAX
 10
-1.000000000000000E+20
 20
-1.000000000000000E+20
 30
-1.000000000000000E+20
  9
$PLIMMIN
 10
-17.793701171875
 20
-5.793749809265136
  9
$PLIMMAX
 10
1171.206298828125
 20
835.2062501907349
  9
$UNITMODE
 70
     0
  9
$VISRETAIN
 70
     1
  9
$PLINEGEN
 70
     0
  9
$PSLTSCALE
 70
     0
  9
$TREEDEPTH
 70
  3020
  9
$CMLSTYLE
  2
Standard
  9
$CMLJUST
 70
     0
  9
$CMLSCALE
 40
20.0
  9
$PROXYGRAPHICS
 70
     0
  9
$MEASUREMENT
 70
     1
  9
$CELWEIGHT
370
    -1
  9
$ENDCAPS
280
     0
  9
$JOINSTYLE
280
     0
  9
$LWDISPLAY
290
     0
  9
$INSUNITS
 70
     6
  9
$HYPERLINKBASE
  1

  9
$STYLESHEET
  1

  9
$XEDIT
290
     1
  9
$CEPSNTYPE
380
     0
  9
$PSTYLEMODE
290
     1
  9
$FINGERPRINTGUID
  2
{F06029B6-7C76-4CD0-9404-5C77157FF81E}
  9
$VERSIONGUID
  2
{41FE7FF6-B891-47E0-807F-BEC8C0AE5A2D}
  9
$EXTNAMES
290
     1
  9
$PSVPSCALE
 40
0.0
  9
$OLESTARTUP
290
     0
  9
$SORTENTS
280
   127
  9
$INDEXCTL
280
     0
  9
$HIDETEXT
280
     1
  9
$XCLIPFRAME
280
     0
  9
$HALOGAP
280
     0
  9
$OBSCOLOR
 70
   257
  9
$OBSLTYPE
280
     0
  9
$INTERSECTIONDISPLAY
280
     0
  9
$INTERSECTIONCOLOR
 70
   257
  9
$DIMASSOC
280
     2
  9
$PROJECTNAME
  1

  9
$CAMERADISPLAY
290
     0
  9
$LENSLENGTH
 40
50.0
  9
$CAMERAHEIGHT
 40
0.0
  9
$STEPSPERSEC
 40
2.0
  9
$STEPSIZE
 40
6.0
  9
$3DDWFPREC
 40
2.0
  9
$PSOLWIDTH
 40
0.25
  9
$PSOLHEIGHT
 40
4.0
  9
$LOFTANG1
 40
1.570796326794896
  9
$LOFTANG2
 40
1.570796326794896
  9
$LOFTMAG1
 40
0.0
  9
$LOFTMAG2
 40
0.0
  9
$LOFTPARAM
 70
     7
  9
$LOFTNORMALS
280
     1
  9
$LATITUDE
 40
37.795
  9
$LONGITUDE
 40
-122.394
  9
$NORTHDIRECTION
 40
0.0
  9
$TIMEZONE
 70
 -8000
  9
$LIGHTGLYPHDISPLAY
280
     1
  9
$TILEMODELIGHTSYNCH
280
     1
  9
$CMATERIAL
347
1AC
  9
$SOLIDHIST
280
     0
  9
$SHOWHIST
280
     1
  9
$DWFFRAME
280
     2
  9
$DGNFRAME
280
     0
  9
$REALWORLDSCALE
290
     1
  9
$INTERFERECOLOR
 62
     1
  9
$INTERFEREOBJVS
345
1B6
  9
$INTERFEREVPVS
346
1B7
  9
$CSHADOW
280
     0
  9
$SHADOWPLANELOCATION
 40
0.0
  0
ENDSEC
  0
SECTION
  2
CLASSES
  0
CLASS
  1
ACDBDICTIONARYWDFLT
  2
AcDbDictionaryWithDefault
  3
ObjectDBX Classes
 90
        0
 91
        1
280
     0
281
     0
  0
CLASS
  1
AEC_NOTIFICATION_TRACKER
  2
AecDbNotificationTracker
  3
AecBase70|Product Desc: Autodesk Architectural Desktop 2007 |Company: Autodesk,Inc. |WEB Address: www.autodesk.com
 90
      129
 91
        0
280
     0
281
     0
  0
CLASS
  1
AEC_DISP_REP_2D_SECTION
  2
AecDbDispRep2dSection
  3
AecBase70|Product Desc: Autodesk Architectural Desktop 2007 |Company: Autodesk,Inc. |WEB Address: www.autodesk.com
 90
      129
 91
        0
280
     0
281
     0
  0
CLASS
  1
AEC_VARS_DWG_SETUP
  2
AecDbVarsDwgSetup
  3
AecBase70|Product Desc: Autodesk Architectural Desktop 2007 |Company: Autodesk,Inc. |WEB Address: www.autodesk.com
 90
      129
 91
        0
280
     0
281
     0
  0
CLASS
  1
AEC_DISP_PROPS_2D_SECTION
  2
AecDbDispProps2dSection
  3
AecBase70|Product Desc: Autodesk Architectural Desktop 2007 |Company: Autodesk,Inc. |WEB Address: www.autodesk.com
 90
      129
 91
        0
280
     0
281
     0
  0
CLASS
  1
AEC_DISP_REP_ANCHOR
  2
AecDbDispRepAnchor
  3
AecBase70|Product Desc: Autodesk Architectural Desktop 2007 |Company: Autodesk,Inc. |WEB Address: www.autodesk.com
 90
      129
 91
        0
280
     0
281
     0
  0
CLASS
  1
AEC_DISP_REP_ANCHOR_ENT_TO_NODE
  2
AecDbDispRepAnchorEntToNode
  3
AecBase70|Product Desc: Autodesk Architectural Desktop 2007 |Company: Autodesk,Inc. |WEB Address: www.autodesk.com
 90
      129
 91
        0
280
     0
281
     0
  0
CLASS
  1
AEC_DISP_PROPS_ENT
  2
AecDbDispPropsEnt
  3
AecBase70|Product Desc: Autodesk Architectural Desktop 2007 |Company: Autodesk,Inc. |WEB Address: www.autodesk.com
 90
      129
 91
        0
280
     0
281
     0
  0
CLASS
  1
AEC_DISP_REP_CAMERA
  2
AecDbDispRepCamera
  3
AecBase70|Product Desc: Autodesk Architectural Desktop 2007 |Company: Autodesk,Inc. |WEB Address: www.autodesk.com
 90
      129
 91
        0
280
     0
281
     0
  0
CLASS
  1
AEC_DISP_PROPS_CAMERA
  2
AecDbDispPropsCamera
  3
AecBase70|Product Desc: Autodesk Architectural Desktop 2007 |Company: Autodesk,Inc. |WEB Address: www.autodesk.com
 90
      129
 91
        0
280
     0
281
     0
  0
CLASS
  1
AEC_DISP_REP_CLIP_VOLUME_MODEL
  2
AecDbDispRepClipVolModel
  3
AecBase70|Product Desc: Autodesk Architectural Desktop 2007 |Company: Autodesk,Inc. |WEB Address: www.autodesk.com
 90
      129
 91
        0
280
     0
281
     0
  0
CLASS
  1
AEC_DISP_PROPS_CLIP_VOLUME
  2
AecDbDispPropsClipVol
  3
AecBase70|Product Desc: Autodesk Architectural Desktop 2007 |Company: Autodesk,Inc. |WEB Address: www.autodesk.com
 90
      129
 91
        0
280
     0
281
     0
  0
CLASS
  1
AEC_DISP_REP_CLIP_VOLUME_PLAN
  2
AecDbDispRepClipVolPlan
  3
AecBase70|Product Desc: Autodesk Architectural Desktop 2007 |Company: Autodesk,Inc. |WEB Address: www.autodesk.com
 90
      129
 91
        0
280
     0
281
     0
  0
CLASS
  1
AEC_DISP_REP_CLIP_VOLUME_RESULT
  2
AecDbDispRepClipVolResult
  3
AecBase70|Product Desc: Autodesk Architectural Desktop 2007 |Company: Autodesk,Inc. |WEB Address: www.autodesk.com
 90
      129
 91
        0
280
     0
281
     0
  0
CLASS
  1
AEC_DISP_REP_CLIP_VOLUME_RESULT_SUBDIV
  2
AecDbDispRepClipVolResSubDiv
  3
AecBase70|Product Desc: Autodesk Architectural Desktop 2007 |Company: Autodesk,Inc. |WEB Address: www.autodesk.com
 90
      129
 91
        0
280
     0
281
     0
  0
CLASS
  1
AEC_DISP_PROPS_CLIP_VOLUME_RESULT
  2
AecDbDispPropsClipVolResSubDiv
  3
AecBase70|Product Desc: Autodesk Architectural Desktop 2007 |Company: Autodesk,Inc. |WEB Address: www.autodesk.com
 90
      129
 91
        0
280
     0
281
     0
  0
CLASS
  1
AEC_DISP_REP_EDITINPLACEPROFILE
  2
AecDbDispRepEditInPlaceProfile
  3
AecBase70|Product Desc: Autodesk Architectural Desktop 2007 |Company: Autodesk,Inc. |WEB Address: www.autodesk.com
 90
      129
 91
        0
280
     0
281
     0
  0
CLASS
  1
AEC_DISP_PROPS_EDITINPLACEPROFILE_MODEL
  2
AecDbDispPropsEditInPlaceProfile
  3
AecBase70|Product Desc: Autodesk Architectural Desktop 2007 |Company: Autodesk,Inc. |WEB Address: www.autodesk.com
 90
      129
 91
        0
280
     0
281
     0
  0
CLASS
  1
AEC_DISP_REP_ENT_REF
  2
AecDbDispRepEntRef
  3
AecBase70|Product Desc: Autodesk Architectural Desktop 2007 |Company: Autodesk,Inc. |WEB Address: www.autodesk.com
 90
      129
 91
        0
280
     0
281
     0
  0
CLASS
  1
AEC_DISP_PROPS_ENT_REF
  2
AecDbDispPropsEntRef
  3
AecBase70|Product Desc: Autodesk Architectural Desktop 2007 |Company: Autodesk,Inc. |WEB Address: www.autodesk.com
 90
      129
 91
        0
280
     0
281
     0
  0
CLASS
  1
AEC_DISP_REP_LAYOUT_CURVE
  2
AecDbDispRepLayoutCurve
  3
AecBase70|Product Desc: Autodesk Architectural Desktop 2007 |Company: Autodesk,Inc. |WEB Address: www.autodesk.com
 90
      129
 91
        0
280
     0
281
     0
  0
CLASS
  1
AEC_DISP_PROPS_LAYOUT_CURVE
  2
AecDbDispPropsLayoutCurve
  3
AecBase70|Product Desc: Autodesk Architectural Desktop 2007 |Company: Autodesk,Inc. |WEB Address: www.autodesk.com
 90
      129
 91
        0
280
     0
281
     0
  0
CLASS
  1
AEC_DISP_REP_LAYOUT_GRID2D
  2
AecDbDispRepLayoutGrid2d
  3
AecBase70|Product Desc: Autodesk Architectural Desktop 2007 |Company: Autodesk,Inc. |WEB Address: www.autodesk.com
 90
      129
 91
        0
280
     0
281
     0
  0
CLASS
  1
AEC_DISP_PROPS_LAYOUT_GRID2D
  2
AecDbDispPropsLayoutGrid2d
  3
AecBase70|Product Desc: Autodesk Architectural Desktop 2007 |Company: Autodesk,Inc. |WEB Address: www.autodesk.com
 90
      129
 91
        0
280
     0
281
     0
  0
CLASS
  1
AEC_DISP_REP_LAYOUT_GRID3D
  2
AecDbDispRepLayoutGrid3d
  3
AecBase70|Product Desc: Autodesk Architectural Desktop 2007 |Company: Autodesk,Inc. |WEB Address: www.autodesk.com
 90
      129
 91
        0
280
     0
281
     0
  0
CLASS
  1
AEC_DISP_PROPS_LAYOUT_GRID3D
  2
AecDbDispPropsLayoutGrid3d
  3
AecBase70|Product Desc: Autodesk Architectural Desktop 2007 |Company: Autodesk,Inc. |WEB Address: www.autodesk.com
 90
      129
 91
        0
280
     0
281
     0
  0
CLASS
  1
AEC_DISP_REP_MASKBLOCK_REF
  2
AecDbDispRepMaskBlockRef
  3
AecBase70|Product Desc: Autodesk Architectural Desktop 2007 |Company: Autodesk,Inc. |WEB Address: www.autodesk.com
 90
      129
 91
        0
280
     0
281
     0
  0
CLASS
  1
AEC_DISP_PROPS_MASKBLOCK
  2
AecDbDispPropsMaskBlock
  3
AecBase70|Product Desc: Autodesk Architectural Desktop 2007 |Company: Autodesk,Inc. |WEB Address: www.autodesk.com
 90
      129
 91
        0
280
     0
281
     0
  0
CLASS
  1
AEC_DISP_REP_MASS_ELEM_MODEL
  2
AecDbDispRepMassElemModel
  3
AecBaseEx70|Product Desc: Autodesk Architectural Desktop 2007 |Company: Autodesk,Inc. |WEB Address: www.autodesk.com
 90
      129
 91
        0
280
     0
281
     0
  0
CLASS
  1
AEC_DISP_PROPS_MASS_ELEM_MODEL
  2
AecDbDispPropsMassElem
  3
AecBaseEx70|Product Desc: Autodesk Architectural Desktop 2007 |Company: Autodesk,Inc. |WEB Address: www.autodesk.com
 90
      129
 91
        0
280
     0
281
     0
  0
CLASS
  1
AEC_DISP_REP_MASS_ELEM_SCHEM
  2
AecDbDispRepMassElemSchem
  3
AecBaseEx70|Product Desc: Autodesk Architectural Desktop 2007 |Company: Autodesk,Inc. |WEB Address: www.autodesk.com
 90
      129
 91
        0
280
     0
281
     0
  0
CLASS
  1
AEC_DISP_REP_MASS_GROUP_MODEL
  2
AecDbDispRepMassGroupModel
  3
AecBaseEx70|Product Desc: Autodesk Architectural Desktop 2007 |Company: Autodesk,Inc. |WEB Address: www.autodesk.com
 90
      129
 91
        0
280
     0
281
     0
  0
CLASS
  1
AEC_DISP_PROPS_MASS_GROUP
  2
AecDbDispPropsMassGroup
  3
AecBaseEx70|Product Desc: Autodesk Architectural Desktop 2007 |Company: Autodesk,Inc. |WEB Address: www.autodesk.com
 90
      129
 91
        0
280
     0
281
     0
  0
CLASS
  1
AEC_DISP_REP_MASS_GROUP_PLAN
  2
AecDbDispRepMassGroupPlan
  3
AecBaseEx70|Product Desc: Autodesk Architectural Desktop 2007 |Company: Autodesk,Inc. |WEB Address: www.autodesk.com
 90
      129
 91
        0
280
     0
281
     0
  0
CLASS
  1
AEC_DISP_REP_MATERIAL
  2
AecDbDispRepMaterial
  3
AecBase70|Product Desc: Autodesk Architectural Desktop 2007 |Company: Autodesk,Inc. |WEB Address: www.autodesk.com
 90
      129
 91
        0
280
     0
281
     0
  0
CLASS
  1
AEC_DISP_PROPS_MATERIAL
  2
AecDbDispPropsMaterial
  3
AecBase70|Product Desc: Autodesk Architectural Desktop 2007 |Company: Autodesk,Inc. |WEB Address: www.autodesk.com
 90
      129
 91
        0
280
     0
281
     0
  0
CLASS
  1
AEC_DISP_REP_MVBLOCK_REF
  2
AecDbDispRepMvBlockRef
  3
AecBase70|Product Desc: Autodesk Architectural Desktop 2007 |Company: Autodesk,Inc. |WEB Address: www.autodesk.com
 90
      129
 91
        0
280
     0
281
     0
  0
CLASS
  1
AEC_DISP_REP_MVBLOCK_REF_MODEL
  2
AecDbDispRepMvBlockRefModel
  3
AecBase70|Product Desc: Autodesk Architectural Desktop 2007 |Company: Autodesk,Inc. |WEB Address: www.autodesk.com
 90
      129
 91
        0
280
     0
281
     0
  0
CLASS
  1
AEC_DISP_REP_POLYGON_MODEL
  2
AecDbDispRepPolygonModel
  3
AecBase70|Product Desc: Autodesk Architectural Desktop 2007 |Company: Autodesk,Inc. |WEB Address: www.autodesk.com
 90
      129
 91
        0
280
     0
281
     0
  0
CLASS
  1
AEC_DISP_PROPS_POLYGON_MODEL
  2
AecDbDispPropsPolygonModel
  3
AecBase70|Product Desc: Autodesk Architectural Desktop 2007 |Company: Autodesk,Inc. |WEB Address: www.autodesk.com
 90
      129
 91
        0
280
     0
281
     0
  0
CLASS
  1
AEC_DISP_REP_POLYGON_TRUECOLOUR
  2
AecDbDispRepPolygonTrueColour
  3
AecBase70|Product Desc: Autodesk Architectural Desktop 2007 |Company: Autodesk,Inc. |WEB Address: www.autodesk.com
 90
      129
 91
        0
280
     0
281
     0
  0
CLASS
  1
AEC_DISP_PROPS_POLYGON_TRUECOLOUR
  2
AecDbDispPropsPolygonTrueColour
  3
AecBase70|Product Desc: Autodesk Architectural Desktop 2007 |Company: Autodesk,Inc. |WEB Address: www.autodesk.com
 90
      129
 91
        0
280
     0
281
     0
  0
CLASS
  1
AEC_DISP_REP_SLICE
  2
AecDbDispRepSlice
  3
AecBase70|Product Desc: Autodesk Architectural Desktop 2007 |Company: Autodesk,Inc. |WEB Address: www.autodesk.com
 90
      129
 91
        0
280
     0
281
     0
  0
CLASS
  1
AEC_DISP_PROPS_SLICE
  2
AecDbDispPropsSlice
  3
AecBase70|Product Desc: Autodesk Architectural Desktop 2007 |Company: Autodesk,Inc. |WEB Address: www.autodesk.com
 90
      129
 91
        0
280
     0
281
     0
  0
CLASS
  1
AEC_DISP_REP_ANCHOR_TAG_TO_ENT
  2
AecDbDispRepAnchorTagToEnt
  3
AecBase70|Product Desc: Autodesk Architectural Desktop 2007 |Company: Autodesk,Inc. |WEB Address: www.autodesk.com
 90
      129
 91
        0
280
     0
281
     0
  0
CLASS
  1
AEC_DISP_REP_SCHEDULE_TABLE
  2
AecDbDispRepScheduleTable
  3
AecSchedule70|Product Desc: Autodesk Architectural Desktop 2007 |Company: Autodesk,Inc. |WEB Address: www.autodesk.com
 90
      129
 91
        0
280
     0
281
     0
  0
CLASS
  1
AEC_DISP_PROPS_SCHEDULE_TABLE
  2
AecDbDispPropsScheduleTable
  3
AecSchedule70|Product Desc: Autodesk Architectural Desktop 2007 |Company: Autodesk,Inc. |WEB Address: www.autodesk.com
 90
      129
 91
        0
280
     0
281
     0
  0
CLASS
  1
AEC_DISP_REP_ANCHOR_BUB_TO_GRID
  2
AecDbDispRepAnchorBubToGrid
  3
AecArchBase70|Product Desc: Autodesk Architectural Desktop 2007 |Company: Autodesk,Inc. |WEB Address: www.autodesk.com
 90
      129
 91
        0
280
     0
281
     0
  0
CLASS
  1
AEC_DISP_REP_ANCHOR_BUB_TO_GRID_MODEL
  2
AecDbDispRepAnchorBubToGridMdl
  3
AecArchBase70|Product Desc: Autodesk Architectural Desktop 2007 |Company: Autodesk,Inc. |WEB Address: www.autodesk.com
 90
      129
 91
        0
280
     0
281
     0
  0
CLASS
  1
AEC_DISP_REP_ANCHOR_BUB_TO_GRID_RCP
  2
AecDbDispRepAnchorBubToGridRcp
  3
AecArchBase70|Product Desc: Autodesk Architectural Desktop 2007 |Company: Autodesk,Inc. |WEB Address: www.autodesk.com
 90
      129
 91
        0
280
     0
281
     0
  0
CLASS
  1
AEC_DISP_REP_COLUMN_GRID
  2
AecDbDispRepColumnGrid
  3
AecArchBase70|Product Desc: Autodesk Architectural Desktop 2007 |Company: Autodesk,Inc. |WEB Address: www.autodesk.com
 90
      129
 91
        0
280
     0
281
     0
  0
CLASS
  1
AEC_DISP_REP_COLUMN_GRID_MODEL
  2
AecDbDispRepColumnGridModel
  3
AecArchBase70|Product Desc: Autodesk Architectural Desktop 2007 |Company: Autodesk,Inc. |WEB Address: www.autodesk.com
 90
      129
 91
        0
280
     0
281
     0
  0
CLASS
  1
AEC_DISP_REP_COLUMN_GRID_RCP
  2
AecDbDispRepColumnGridRcp
  3
AecArchBase70|Product Desc: Autodesk Architectural Desktop 2007 |Company: Autodesk,Inc. |WEB Address: www.autodesk.com
 90
      129
 91
        0
280
     0
281
     0
  0
CLASS
  1
AECS_DISP_REP_MEMBER_ELEVATION_DESIGN
  2
AecsDbDispRepMemberElevationDesign
  3
AecArchBase70|Product Desc: Autodesk Architectural Desktop 2007 |Company: Autodesk,Inc. |WEB Address: www.autodesk.com
 90
      129
 91
        0
280
     0
281
     0
  0
CLASS
  1
AECS_DISP_PROPS_MEMBER_PROJECTED
  2
AecsDbDispPropsMemberProjected
  3
AecArchBase70|Product Desc: Autodesk Architectural Desktop 2007 |Company: Autodesk,Inc. |WEB Address: www.autodesk.com
 90
      129
 91
        0
280
     0
281
     0
  0
CLASS
  1
AECS_DISP_REP_MEMBER_ELEVATION_DETAIL
  2
AecsDbDispRepMemberElevationDetail
  3
AecArchBase70|Product Desc: Autodesk Architectural Desktop 2007 |Company: Autodesk,Inc. |WEB Address: www.autodesk.com
 90
      129
 91
        0
280
     0
281
     0
  0
CLASS
  1
AECS_DISP_REP_MEMBER_LOGICAL
  2
AecsDbDispRepMemberLogical
  3
AecArchBase70|Product Desc: Autodesk Architectural Desktop 2007 |Company: Autodesk,Inc. |WEB Address: www.autodesk.com
 90
      129
 91
        0
280
     0
281
     0
  0
CLASS
  1
AECS_DISP_PROPS_MEMBER_LOGICAL
  2
AecsDbDispPropsMemberLogical
  3
AecArchBase70|Product Desc: Autodesk Architectural Desktop 2007 |Company: Autodesk,Inc. |WEB Address: www.autodesk.com
 90
      129
 91
        0
280
     0
281
     0
  0
CLASS
  1
AECS_DISP_REP_MEMBER_MODEL_DESIGN
  2
AecsDbDispRepMemberModelDesign
  3
AecArchBase70|Product Desc: Autodesk Architectural Desktop 2007 |Company: Autodesk,Inc. |WEB Address: www.autodesk.com
 90
      129
 91
        0
280
     0
281
     0
  0
CLASS
  1
AECS_DISP_PROPS_MEMBER
  2
AecsDbDispPropsMember
  3
AecArchBase70|Product Desc: Autodesk Architectural Desktop 2007 |Company: Autodesk,Inc. |WEB Address: www.autodesk.com
 90
      129
 91
        0
280
     0
281
     0
  0
CLASS
  1
AECS_DISP_REP_MEMBER_MODEL_DETAIL
  2
AecsDbDispRepMemberModelDetail
  3
AecArchBase70|Product Desc: Autodesk Architectural Desktop 2007 |Company: Autodesk,Inc. |WEB Address: www.autodesk.com
 90
      129
 91
        0
280
     0
281
     0
  0
CLASS
  1
AECS_DISP_REP_MEMBER_PLAN_DESIGN
  2
AecsDbDispRepMemberPlanDesign
  3
AecArchBase70|Product Desc: Autodesk Architectural Desktop 2007 |Company: Autodesk,Inc. |WEB Address: www.autodesk.com
 90
      129
 91
        0
280
     0
281
     0
  0
CLASS
  1
AECS_DISP_PROPS_MEMBER_PLAN
  2
AecsDbDispPropsMemberPlan
  3
AecArchBase70|Product Desc: Autodesk Architectural Desktop 2007 |Company: Autodesk,Inc. |WEB Address: www.autodesk.com
 90
      129
 91
        0
280
     0
281
     0
  0
CLASS
  1
AECS_DISP_REP_MEMBER_PLAN_DETAIL
  2
AecsDbDispRepMemberPlanDetail
  3
AecArchBase70|Product Desc: Autodesk Architectural Desktop 2007 |Company: Autodesk,Inc. |WEB Address: www.autodesk.com
 90
      129
 91
        0
280
     0
281
     0
  0
CLASS
  1
AECS_DISP_REP_MEMBER_PLAN_SKETCH
  2
AecsDbDispRepMemberPlanSketch
  3
AecArchBase70|Product Desc: Autodesk Architectural Desktop 2007 |Company: Autodesk,Inc. |WEB Address: www.autodesk.com
 90
      129
 91
        0
280
     0
281
     0
  0
CLASS
  1
AECS_DISP_PROPS_MEMBER_PLAN_SKETCH
  2
AecsDbDispPropsMemberPlanSketch
  3
AecArchBase70|Product Desc: Autodesk Architectural Desktop 2007 |Company: Autodesk,Inc. |WEB Address: www.autodesk.com
 90
      129
 91
        0
280
     0
281
     0
  0
CLASS
  1
AEC_DISP_REP_BDG_ELEVLINE_MODEL
  2
AecDbDispRepBdgElevLineModel
  3
AecArchBase70|Product Desc: Autodesk Architectural Desktop 2007 |Company: Autodesk,Inc. |WEB Address: www.autodesk.com
 90
      129
 91
        0
280
     0
281
     0
  0
CLASS
  1
AEC_DISP_REP_BDG_SECTIONLINE_PLAN
  2
AecDbDispRepBdgElevLinePlan
  3
AecArchBase70|Product Desc: Autodesk Architectural Desktop 2007 |Company: Autodesk,Inc. |WEB Address: www.autodesk.com
 90
      129
 91
        0
280
     0
281
     0
  0
CLASS
  1
AEC_DISP_REP_BDG_ELEVLINE_RCP
  2
AecDbDispRepBdgElevLineRcp
  3
AecArchBase70|Product Desc: Autodesk Architectural Desktop 2007 |Company: Autodesk,Inc. |WEB Address: www.autodesk.com
 90
      129
 91
        0
280
     0
281
     0
  0
CLASS
  1
AEC_DISP_REP_BDG_SECTIONLINE_MODEL
  2
AecDbDispRepBdgSectionLineModel
  3
AecArchBase70|Product Desc: Autodesk Architectural Desktop 2007 |Company: Autodesk,Inc. |WEB Address: www.autodesk.com
 90
      129
 91
        0
280
     0
281
     0
  0
CLASS
  1
AEC_DISP_REP_BDG_SECTIONLINE_PLAN
  2
AecDbDispRepBdgSectionLinePlan
  3
AecArchBase70|Product Desc: Autodesk Architectural Desktop 2007 |Company: Autodesk,Inc. |WEB Address: www.autodesk.com
 90
      129
 91
        0
280
     0
281
     0
  0
CLASS
  1
AEC_DISP_REP_BDG_SECTIONLINE_RCP
  2
AecDbDispRepBdgSectionLineRcp
  3
AecArchBase70|Product Desc: Autodesk Architectural Desktop 2007 |Company: Autodesk,Inc. |WEB Address: www.autodesk.com
 90
      129
 91
        0
280
     0
281
     0
  0
CLASS
  1
AEC_DISP_REP_BDG_SECTION_MODEL
  2
AecDbDispRepBdgSectionModel
  3
AecArchBase70|Product Desc: Autodesk Architectural Desktop 2007 |Company: Autodesk,Inc. |WEB Address: www.autodesk.com
 90
      129
 91
        0
280
     0
281
     0
  0
CLASS
  1
AEC_DISP_REP_BDG_SECTION_SUBDIV
  2
AecDbDispRepBdgSectionSubDiv
  3
AecArchBase70|Product Desc: Autodesk Architectural Desktop 2007 |Company: Autodesk,Inc. |WEB Address: www.autodesk.com
 90
      129
 91
        0
280
     0
281
     0
  0
CLASS
  1
AEC_DISP_REP_CEILING_GRID
  2
AecDbDispRepCeilingGrid
  3
AecArchBase70|Product Desc: Autodesk Architectural Desktop 2007 |Company: Autodesk,Inc. |WEB Address: www.autodesk.com
 90
      893
 91
        0
280
     0
281
     0
  0
CLASS
  1
AEC_DISP_REP_CEILING_GRID_MODEL
  2
AecDbDispRepCeilingGridModel
  3
AecArchBase70|Product Desc: Autodesk Architectural Desktop 2007 |Company: Autodesk,Inc. |WEB Address: www.autodesk.com
 90
      129
 91
        0
280
     0
281
     0
  0
CLASS
  1
AEC_DISP_REP_CEILING_GRID_RCP
  2
AecDbDispRepCeilingGridRcp
  3
AecArchBase70|Product Desc: Autodesk Architectural Desktop 2007 |Company: Autodesk,Inc. |WEB Address: www.autodesk.com
 90
      129
 91
        0
280
     0
281
     0
  0
CLASS
  1
AEC_DISP_REP_CURTAIN_WALL_LAYOUT_MODEL
  2
AecDbDispRepCurtainWallLayoutModel
  3
AecArchBase70|Product Desc: Autodesk Architectural Desktop 2007 |Company: Autodesk,Inc. |WEB Address: www.autodesk.com
 90
      129
 91
        0
280
     0
281
     0
  0
CLASS
  1
AEC_DISP_PROPS_GRID_ASSEMBLY_MODEL
  2
AecDbDispPropsGridAssemblyModel
  3
AecArchBase70|Product Desc: Autodesk Architectural Desktop 2007 |Company: Autodesk,Inc. |WEB Address: www.autodesk.com
 90
      129
 91
        0
280
     0
281
     0
  0
CLASS
  1
AEC_DISP_REP_CURTAIN_WALL_LAYOUT_PLAN
  2
AecDbDispRepCurtainWallLayoutPlan
  3
AecArchBase70|Product Desc: Autodesk Architectural Desktop 2007 |Company: Autodesk,Inc. |WEB Address: www.autodesk.com
 90
      129
 91
        0
280
     0
281
     0
  0
CLASS
  1
AEC_DISP_PROPS_GRID_ASSEMBLY_PLAN
  2
AecDbDispPropsGridAssemblyPlan
  3
AecArchBase70|Product Desc: Autodesk Architectural Desktop 2007 |Company: Autodesk,Inc. |WEB Address: www.autodesk.com
 90
      129
 91
        0
280
     0
281
     0
  0
CLASS
  1
AEC_DISP_REP_CURTAIN_WALL_UNIT_MODEL
  2
AecDbDispRepCurtainWallUnitModel
  3
AecArchBase70|Product Desc: Autodesk Architectural Desktop 2007 |Company: Autodesk,Inc. |WEB Address: www.autodesk.com
 90
      129
 91
        0
280
     0
281
     0
  0
CLASS
  1
AEC_DISP_REP_CURTAIN_WALL_UNIT_PLAN
  2
AecDbDispRepCurtainWallUnitPlan
  3
AecArchBase70|Product Desc: Autodesk Architectural Desktop 2007 |Company: Autodesk,Inc. |WEB Address: www.autodesk.com
 90
      129
 91
        0
280
     0
281
     0
  0
CLASS
  1
AEC_DISP_REP_DOOR_MODEL
  2
AecDbDispRepDoorModel
  3
AecArchBase70|Product Desc: Autodesk Architectural Desktop 2007 |Company: Autodesk,Inc. |WEB Address: www.autodesk.com
 90
      129
 91
        0
280
     0
281
     0
  0
CLASS
  1
AEC_DISP_PROPS_DOOR
  2
AecDbDispPropsDoor
  3
AecArchBase70|Product Desc: Autodesk Architectural Desktop 2007 |Company: Autodesk,Inc. |WEB Address: www.autodesk.com
 90
      129
 91
        0
280
     0
281
     0
  0
CLASS
  1
AEC_DISP_REP_DOOR_ELEV
  2
AecDbDispRepDoorElev
  3
AecArchBase70|Product Desc: Autodesk Architectural Desktop 2007 |Company: Autodesk,Inc. |WEB Address: www.autodesk.com
 90
      129
 91
        0
280
     0
281
     0
  0
CLASS
  1
AEC_DISP_REP_DOOR_PLAN
  2
AecDbDispRepDoorPlan
  3
AecArchBase70|Product Desc: Autodesk Architectural Desktop 2007 |Company: Autodesk,Inc. |WEB Address: www.autodesk.com
 90
      129
 91
        0
280
     0
281
     0
  0
CLASS
  1
AEC_DISP_REP_DOOR_NOMINAL
  2
AecDbDispRepDoorNominal
  3
AecArchBase70|Product Desc: Autodesk Architectural Desktop 2007 |Company: Autodesk,Inc. |WEB Address: www.autodesk.com
 90
      129
 91
        0
280
     0
281
     0
  0
CLASS
  1
AEC_DISP_PROPS_DOOR_NOMINAL
  2
AecDbDispPropsDoorNominal
  3
AecArchBase70|Product Desc: Autodesk Architectural Desktop 2007 |Company: Autodesk,Inc. |WEB Address: www.autodesk.com
 90
      129
 91
        0
280
     0
281
     0
  0
CLASS
  1
AEC_DISP_REP_DOOR_RCP
  2
AecDbDispRepDoorRcp
  3
AecArchBase70|Product Desc: Autodesk Architectural Desktop 2007 |Company: Autodesk,Inc. |WEB Address: www.autodesk.com
 90
      129
 91
        0
280
     0
281
     0
  0
CLASS
  1
AEC_DISP_REP_DOOR_THRESHOLD_PLAN
  2
AecDbDispRepDoorThresholdPlan
  3
AecArchBase70|Product Desc: Autodesk Architectural Desktop 2007 |Company: Autodesk,Inc. |WEB Address: www.autodesk.com
 90
      129
 91
        0
280
     0
281
     0
  0
CLASS
  1
AEC_DISP_PROPS_DOOR_THRESHOLD_PLAN
  2
AecDbDispPropsDoorThresholdPlan
  3
AecArchBase70|Product Desc: Autodesk Architectural Desktop 2007 |Company: Autodesk,Inc. |WEB Address: www.autodesk.com
 90
      129
 91
        0
280
     0
281
     0
  0
CLASS
  1
AEC_DISP_REP_MASKBLOCK_REF_RCP
  2
AecDbDispRepMaskBlockRefRcp
  3
AecArchBase70|Product Desc: Autodesk Architectural Desktop 2007 |Company: Autodesk,Inc. |WEB Address: www.autodesk.com
 90
      129
 91
        0
280
     0
281
     0
  0
CLASS
  1
AEC_DISP_REP_MASS_ELEM_RCP
  2
AecDbDispRepMassElemRcp
  3
AecArchBase70|Product Desc: Autodesk Architectural Desktop 2007 |Company: Autodesk,Inc. |WEB Address: www.autodesk.com
 90
      129
 91
        0
280
     0
281
     0
  0
CLASS
  1
AEC_DISP_REP_MASS_GROUP_RCP
  2
AecDbDispRepMassGroupRcp
  3
AecArchBase70|Product Desc: Autodesk Architectural Desktop 2007 |Company: Autodesk,Inc. |WEB Address: www.autodesk.com
 90
      129
 91
        0
280
     0
281
     0
  0
CLASS
  1
AEC_DISP_REP_MVBLOCK_REF_RCP
  2
AecDbDispRepMvBlockRefRcp
  3
AecArchBase70|Product Desc: Autodesk Architectural Desktop 2007 |Company: Autodesk,Inc. |WEB Address: www.autodesk.com
 90
      129
 91
        0
280
     0
281
     0
  0
CLASS
  1
AEC_DISP_REP_OPENING
  2
AecDbDispRepOpening
  3
AecArchBase70|Product Desc: Autodesk Architectural Desktop 2007 |Company: Autodesk,Inc. |WEB Address: www.autodesk.com
 90
      129
 91
        0
280
     0
281
     0
  0
CLASS
  1
AEC_DISP_PROPS_OPENING
  2
AecDbDispPropsOpening
  3
AecArchBase70|Product Desc: Autodesk Architectural Desktop 2007 |Company: Autodesk,Inc. |WEB Address: www.autodesk.com
 90
      129
 91
        0
280
     0
281
     0
  0
CLASS
  1
AEC_DISP_REP_OPENING_MODEL
  2
AecDbDispRepOpeningModel
  3
AecArchBase70|Product Desc: Autodesk Architectural Desktop 2007 |Company: Autodesk,Inc. |WEB Address: www.autodesk.com
 90
      129
 91
        0
280
     0
281
     0
  0
CLASS
  1
AEC_DISP_REP_RAILING_MODEL
  2
AecDbDispRepRailingModel
  3
AecArchBase70|Product Desc: Autodesk Architectural Desktop 2007 |Company: Autodesk,Inc. |WEB Address: www.autodesk.com
 90
      129
 91
        0
280
     0
281
     0
  0
CLASS
  1
AEC_DISP_PROPS_RAILING_MODEL
  2
AecDbDispPropsRailingModel
  3
AecArchBase70|Product Desc: Autodesk Architectural Desktop 2007 |Company: Autodesk,Inc. |WEB Address: www.autodesk.com
 90
      129
 91
        0
280
     0
281
     0
  0
CLASS
  1
AEC_DISP_REP_RAILING_PLAN
  2
AecDbDispRepRailingPlan
  3
AecArchBase70|Product Desc: Autodesk Architectural Desktop 2007 |Company: Autodesk,Inc. |WEB Address: www.autodesk.com
 90
      129
 91
        0
280
     0
281
     0
  0
CLASS
  1
AEC_DISP_PROPS_RAILING_PLAN
  2
AecDbDispPropsRailingPlan
  3
AecArchBase70|Product Desc: Autodesk Architectural Desktop 2007 |Company: Autodesk,Inc. |WEB Address: www.autodesk.com
 90
      129
 91
        0
280
     0
281
     0
  0
CLASS
  1
AEC_DISP_REP_ROOF_MODEL
  2
AecDbDispRepRoofModel
  3
AecArchBase70|Product Desc: Autodesk Architectural Desktop 2007 |Company: Autodesk,Inc. |WEB Address: www.autodesk.com
 90
      129
 91
        0
280
     0
281
     0
  0
CLASS
  1
AEC_DISP_PROPS_ROOF
  2
AecDbDispPropsRoof
  3
AecArchBase70|Product Desc: Autodesk Architectural Desktop 2007 |Company: Autodesk,Inc. |WEB Address: www.autodesk.com
 90
      129
 91
        0
280
     0
281
     0
  0
CLASS
  1
AEC_DISP_REP_ROOF_PLAN
  2
AecDbDispRepRoofPlan
  3
AecArchBase70|Product Desc: Autodesk Architectural Desktop 2007 |Company: Autodesk,Inc. |WEB Address: www.autodesk.com
 90
      129
 91
        0
280
     0
281
     0
  0
CLASS
  1
AEC_DISP_REP_ROOF_RCP
  2
AecDbDispRepRoofRcp
  3
AecArchBase70|Product Desc: Autodesk Architectural Desktop 2007 |Company: Autodesk,Inc. |WEB Address: www.autodesk.com
 90
      129
 91
        0
280
     0
281
     0
  0
CLASS
  1
AEC_DISP_REP_SLAB_MODEL
  2
AecDbDispRepSlabModel
  3
AecArchBase70|Product Desc: Autodesk Architectural Desktop 2007 |Company: Autodesk,Inc. |WEB Address: www.autodesk.com
 90
      129
 91
        0
280
     0
281
     0
  0
CLASS
  1
AEC_DISP_PROPS_SLAB
  2
AecDbDispPropsSlab
  3
AecArchBase70|Product Desc: Autodesk Architectural Desktop 2007 |Company: Autodesk,Inc. |WEB Address: www.autodesk.com
 90
      129
 91
        0
280
     0
281
     0
  0
CLASS
  1
AEC_DISP_REP_ROOFSLAB_MODEL
  2
AecDbDispRepRoofSlabModel
  3
AecArchBase70|Product Desc: Autodesk Architectural Desktop 2007 |Company: Autodesk,Inc. |WEB Address: www.autodesk.com
 90
      129
 91
        0
280
     0
281
     0
  0
CLASS
  1
AEC_DISP_PROPS_ROOFSLAB
  2
AecDbDispPropsRoofSlab
  3
AecArchBase70|Product Desc: Autodesk Architectural Desktop 2007 |Company: Autodesk,Inc. |WEB Address: www.autodesk.com
 90
      129
 91
        0
280
     0
281
     0
  0
CLASS
  1
AEC_DISP_REP_SLAB_PLAN
  2
AecDbDispRepSlabPlan
  3
AecArchBase70|Product Desc: Autodesk Architectural Desktop 2007 |Company: Autodesk,Inc. |WEB Address: www.autodesk.com
 90
      129
 91
        0
280
     0
281
     0
  0
CLASS
  1
AEC_DISP_PROPS_SLAB_PLAN
  2
AecDbDispPropsSlabPlan
  3
AecArchBase70|Product Desc: Autodesk Architectural Desktop 2007 |Company: Autodesk,Inc. |WEB Address: www.autodesk.com
 90
      129
 91
        0
280
     0
281
     0
  0
CLASS
  1
AEC_DISP_REP_ROOFSLAB_PLAN
  2
AecDbDispRepRoofSlabPlan
  3
AecArchBase70|Product Desc: Autodesk Architectural Desktop 2007 |Company: Autodesk,Inc. |WEB Address: www.autodesk.com
 90
      129
 91
        0
280
     0
281
     0
  0
CLASS
  1
AEC_DISP_PROPS_ROOFSLAB_PLAN
  2
AecDbDispPropsRoofSlabPlan
  3
AecArchBase70|Product Desc: Autodesk Architectural Desktop 2007 |Company: Autodesk,Inc. |WEB Address: www.autodesk.com
 90
      129
 91
        0
280
     0
281
     0
  0
CLASS
  1
AEC_DISP_REP_SPACE_BOUNDARY_DIAGRAM
  2
AecDbDispRepSpaceBoundaryDgrm
  3
AecArchBase70|Product Desc: Autodesk Architectural Desktop 2007 |Company: Autodesk,Inc. |WEB Address: www.autodesk.com
 90
      129
 91
        0
280
     0
281
     0
  0
CLASS
  1
AEC_DISP_PROPS_SPACE_BOUNDARY
  2
AecDbDispPropsSpaceBoundary
  3
AecArchBase70|Product Desc: Autodesk Architectural Desktop 2007 |Company: Autodesk,Inc. |WEB Address: www.autodesk.com
 90
      129
 91
        0
280
     0
281
     0
  0
CLASS
  1
AEC_DISP_REP_SPACE_BOUNDARY_MODEL
  2
AecDbDispRepSpaceBoundaryModel
  3
AecArchBase70|Product Desc: Autodesk Architectural Desktop 2007 |Company: Autodesk,Inc. |WEB Address: www.autodesk.com
 90
      129
 91
        0
280
     0
281
     0
  0
CLASS
  1
AEC_DISP_REP_SPACE_BOUNDARY_PLAN
  2
AecDbDispRepSpaceBoundaryPlan
  3
AecArchBase70|Product Desc: Autodesk Architectural Desktop 2007 |Company: Autodesk,Inc. |WEB Address: www.autodesk.com
 90
      129
 91
        0
280
     0
281
     0
  0
CLASS
  1
AEC_DISP_REP_SPACE_BOUNDARY_SCHEM
  2
AecDbDispRepSpaceBoundarySketch
  3
AecArchBase70|Product Desc: Autodesk Architectural Desktop 2007 |Company: Autodesk,Inc. |WEB Address: www.autodesk.com
 90
      129
 91
        0
280
     0
281
     0
  0
CLASS
  1
AEC_DISP_REP_SPACE_MODEL
  2
AecDbDispRepSpaceModel
  3
AecArchBase70|Product Desc: Autodesk Architectural Desktop 2007 |Company: Autodesk,Inc. |WEB Address: www.autodesk.com
 90
      129
 91
        0
280
     0
281
     0
  0
CLASS
  1
AEC_DISP_PROPS_SPACE_MODEL
  2
AecDbDispPropsSpaceModel
  3
AecArchBase70|Product Desc: Autodesk Architectural Desktop 2007 |Company: Autodesk,Inc. |WEB Address: www.autodesk.com
 90
      129
 91
        0
280
     0
281
     0
  0
CLASS
  1
AEC_DISP_REP_SPACE_PLAN
  2
AecDbDispRepSpacePlan
  3
AecArchBase70|Product Desc: Autodesk Architectural Desktop 2007 |Company: Autodesk,Inc. |WEB Address: www.autodesk.com
 90
      129
 91
        0
280
     0
281
     0
  0
CLASS
  1
AEC_DISP_PROPS_SPACE_PLAN
  2
AecDbDispPropsSpacePlan
  3
AecArchBase70|Product Desc: Autodesk Architectural Desktop 2007 |Company: Autodesk,Inc. |WEB Address: www.autodesk.com
 90
      129
 91
        0
280
     0
281
     0
  0
CLASS
  1
AEC_DISP_REP_SPACE_RCP
  2
AecDbDispRepSpaceRcp
  3
AecArchBase70|Product Desc: Autodesk Architectural Desktop 2007 |Company: Autodesk,Inc. |WEB Address: www.autodesk.com
 90
      129
 91
        0
280
     0
281
     0
  0
CLASS
  1
AEC_DISP_REP_SPACE_VOLUME
  2
AecDbDispRepSpaceVolume
  3
AecArchBase70|Product Desc: Autodesk Architectural Desktop 2007 |Company: Autodesk,Inc. |WEB Address: www.autodesk.com
 90
      129
 91
        0
280
     0
281
     0
  0
CLASS
  1
AEC_DISP_REP_STAIR_MODEL
  2
AecDbDispRepStairModel
  3
AecArchBase70|Product Desc: Autodesk Architectural Desktop 2007 |Company: Autodesk,Inc. |WEB Address: www.autodesk.com
 90
      129
 91
        0
280
     0
281
     0
  0
CLASS
  1
AEC_DISP_PROPS_STAIR_MODEL
  2
AecDbDispPropsStairModel
  3
AecArchBase70|Product Desc: Autodesk Architectural Desktop 2007 |Company: Autodesk,Inc. |WEB Address: www.autodesk.com
 90
      129
 91
        0
280
     0
281
     0
  0
CLASS
  1
AEC_DISP_REP_STAIR_PLAN
  2
AecDbDispRepStairPlan
  3
AecArchBase70|Product Desc: Autodesk Architectural Desktop 2007 |Company: Autodesk,Inc. |WEB Address: www.autodesk.com
 90
      129
 91
        0
280
     0
281
     0
  0
CLASS
  1
AEC_DISP_PROPS_STAIR_PLAN
  2
AecDbDispPropsStairPlan
  3
AecArchBase70|Product Desc: Autodesk Architectural Desktop 2007 |Company: Autodesk,Inc. |WEB Address: www.autodesk.com
 90
      129
 91
        0
280
     0
281
     0
  0
CLASS
  1
AEC_DISP_REP_STAIR_PLAN_OVERLAPPING
  2
AecDbDispRepStairPlanOverlapping
  3
AecArchBase70|Product Desc: Autodesk Architectural Desktop 2007 |Company: Autodesk,Inc. |WEB Address: www.autodesk.com
 90
      129
 91
        0
280
     0
281
     0
  0
CLASS
  1
AEC_DISP_PROPS_STAIR_PLAN_OVERLAPPING
  2
AecDbDispPropsStairPlanOverlapping
  3
AecArchBase70|Product Desc: Autodesk Architectural Desktop 2007 |Company: Autodesk,Inc. |WEB Address: www.autodesk.com
 90
      129
 91
        0
280
     0
281
     0
  0
CLASS
  1
AEC_DISP_REP_STAIR_RCP
  2
AecDbDispRepStairRcp
  3
AecArchBase70|Product Desc: Autodesk Architectural Desktop 2007 |Company: Autodesk,Inc. |WEB Address: www.autodesk.com
 90
      129
 91
        0
280
     0
281
     0
  0
CLASS
  1
AEC_DISP_REP_WALL_GRAPH
  2
AecDbDispRepWallGraph
  3
AecArchBase70|Product Desc: Autodesk Architectural Desktop 2007 |Company: Autodesk,Inc. |WEB Address: www.autodesk.com
 90
      129
 91
        0
280
     0
281
     0
  0
CLASS
  1
AEC_DISP_PROPS_WALL_GRAPH
  2
AecDbDispPropsWallGraph
  3
AecArchBase70|Product Desc: Autodesk Architectural Desktop 2007 |Company: Autodesk,Inc. |WEB Address: www.autodesk.com
 90
      129
 91
        0
280
     0
281
     0
  0
CLASS
  1
AEC_DISP_REP_WALL_MODEL
  2
AecDbDispRepWallModel
  3
AecArchBase70|Product Desc: Autodesk Architectural Desktop 2007 |Company: Autodesk,Inc. |WEB Address: www.autodesk.com
 90
      129
 91
        0
280
     0
281
     0
  0
CLASS
  1
AEC_DISP_PROPS_WALL_MODEL
  2
AecDbDispPropsWallModel
  3
AecArchBase70|Product Desc: Autodesk Architectural Desktop 2007 |Company: Autodesk,Inc. |WEB Address: www.autodesk.com
 90
      129
 91
        0
280
     0
281
     0
  0
CLASS
  1
AEC_DISP_REP_WALL_PLAN
  2
AecDbDispRepWallPlan
  3
AecArchBase70|Product Desc: Autodesk Architectural Desktop 2007 |Company: Autodesk,Inc. |WEB Address: www.autodesk.com
 90
      129
 91
        0
280
     0
281
     0
  0
CLASS
  1
AEC_DISP_PROPS_WALL_PLAN
  2
AecDbDispPropsWallPlan
  3
AecArchBase70|Product Desc: Autodesk Architectural Desktop 2007 |Company: Autodesk,Inc. |WEB Address: www.autodesk.com
 90
      129
 91
        0
280
     0
281
     0
  0
CLASS
  1
AEC_DISP_REP_WALL_RCP
  2
AecDbDispRepWallRcp
  3
AecArchBase70|Product Desc: Autodesk Architectural Desktop 2007 |Company: Autodesk,Inc. |WEB Address: www.autodesk.com
 90
      129
 91
        0
280
     0
281
     0
  0
CLASS
  1
AEC_DISP_REP_WALL_SCHEM
  2
AecDbDispRepWallSchem
  3
AecArchBase70|Product Desc: Autodesk Architectural Desktop 2007 |Company: Autodesk,Inc. |WEB Address: www.autodesk.com
 90
      129
 91
        0
280
     0
281
     0
  0
CLASS
  1
AEC_DISP_PROPS_WALL_SCHEM
  2
AecDbDispPropsWallSchem
  3
AecArchBase70|Product Desc: Autodesk Architectural Desktop 2007 |Company: Autodesk,Inc. |WEB Address: www.autodesk.com
 90
      129
 91
        0
280
     0
281
     0
  0
CLASS
  1
AEC_DISP_REP_WINDOW_ASSEMBLY_MODEL
  2
AecDbDispRepWindowAssemblyModel
  3
AecArchBase70|Product Desc: Autodesk Architectural Desktop 2007 |Company: Autodesk,Inc. |WEB Address: www.autodesk.com
 90
      129
 91
        0
280
     0
281
     0
  0
CLASS
  1
AEC_DISP_REP_WINDOW_ASSEMBLY_PLAN
  2
AecDbDispRepWindowAssemblyPlan
  3
AecArchBase70|Product Desc: Autodesk Architectural Desktop 2007 |Company: Autodesk,Inc. |WEB Address: www.autodesk.com
 90
      129
 91
        0
280
     0
281
     0
  0
CLASS
  1
AEC_DISP_REP_WINDOWASSEMBLY_SILL_PLAN
  2
AecDbDispRepWindowAssemblySillPlan
  3
AecArchBase70|Product Desc: Autodesk Architectural Desktop 2007 |Company: Autodesk,Inc. |WEB Address: www.autodesk.com
 90
      129
 91
        0
280
     0
281
     0
  0
CLASS
  1
AEC_DISP_PROPS_WINDOW_ASSEMBLY_SILL_PLAN
  2
AecDbDispPropsWindowAssemblySillPlan
  3
AecArchBase70|Product Desc: Autodesk Architectural Desktop 2007 |Company: Autodesk,Inc. |WEB Address: www.autodesk.com
 90
      129
 91
        0
280
     0
281
     0
  0
CLASS
  1
AEC_DISP_REP_WINDOW_MODEL
  2
AecDbDispRepWindowModel
  3
AecArchBase70|Product Desc: Autodesk Architectural Desktop 2007 |Company: Autodesk,Inc. |WEB Address: www.autodesk.com
 90
      129
 91
        0
280
     0
281
     0
  0
CLASS
  1
AEC_DISP_PROPS_WINDOW
  2
AecDbDispPropsWindow
  3
AecArchBase70|Product Desc: Autodesk Architectural Desktop 2007 |Company: Autodesk,Inc. |WEB Address: www.autodesk.com
 90
      129
 91
        0
280
     0
281
     0
  0
CLASS
  1
AEC_DISP_REP_WINDOW_ELEV
  2
AecDbDispRepWindowElev
  3
AecArchBase70|Product Desc: Autodesk Architectural Desktop 2007 |Company: Autodesk,Inc. |WEB Address: www.autodesk.com
 90
      129
 91
        0
280
     0
281
     0
  0
CLASS
  1
AEC_DISP_REP_WINDOW_PLAN
  2
AecDbDispRepWindowPlan
  3
AecArchBase70|Product Desc: Autodesk Architectural Desktop 2007 |Company: Autodesk,Inc. |WEB Address: www.autodesk.com
 90
      129
 91
        0
280
     0
281
     0
  0
CLASS
  1
AEC_DISP_REP_WINDOW_NOMINAL
  2
AecDbDispRepWindowNominal
  3
AecArchBase70|Product Desc: Autodesk Architectural Desktop 2007 |Company: Autodesk,Inc. |WEB Address: www.autodesk.com
 90
      129
 91
        0
280
     0
281
     0
  0
CLASS
  1
AEC_DISP_PROPS_WINDOW_NOMINAL
  2
AecDbDispPropsWindowNominal
  3
AecArchBase70|Product Desc: Autodesk Architectural Desktop 2007 |Company: Autodesk,Inc. |WEB Address: www.autodesk.com
 90
      129
 91
        0
280
     0
281
     0
  0
CLASS
  1
AEC_DISP_REP_WINDOW_RCP
  2
AecDbDispRepWindowRcp
  3
AecArchBase70|Product Desc: Autodesk Architectural Desktop 2007 |Company: Autodesk,Inc. |WEB Address: www.autodesk.com
 90
      129
 91
        0
280
     0
281
     0
  0
CLASS
  1
AEC_DISP_REP_WINDOW_SILL_PLAN
  2
AecDbDispRepWindowSillPlan
  3
AecArchBase70|Product Desc: Autodesk Architectural Desktop 2007 |Company: Autodesk,Inc. |WEB Address: www.autodesk.com
 90
      129
 91
        0
280
     0
281
     0
  0
CLASS
  1
AEC_DISP_PROPS_WINDOW_SILL_PLAN
  2
AecDbDispPropsWindowSillPlan
  3
AecArchBase70|Product Desc: Autodesk Architectural Desktop 2007 |Company: Autodesk,Inc. |WEB Address: www.autodesk.com
 90
      129
 91
        0
280
     0
281
     0
  0
CLASS
  1
AEC_DISP_REP_AREA
  2
AecDbDispRepArea
  3
AecAreaCalculationBase70|Product Desc: Autodesk Architectural Desktop 2007 |Company: Autodesk,Inc. |WEB Address: www.autodesk.com
 90
      129
 91
        0
280
     0
281
     0
  0
CLASS
  1
AEC_DISP_PROPS_AREA
  2
AecDbDispPropsArea
  3
AecAreaCalculationBase70|Product Desc: Autodesk Architectural Desktop 2007 |Company: Autodesk,Inc. |WEB Address: www.autodesk.com
 90
      129
 91
        0
280
     0
281
     0
  0
CLASS
  1
AEC_DISP_REP_AREA_DECOMPOSED
  2
AecDbDispRepAreaDecomposed
  3
AecAreaCalculationBase70|Product Desc: Autodesk Architectural Desktop 2007 |Company: Autodesk,Inc. |WEB Address: www.autodesk.com
 90
      129
 91
        0
280
     0
281
     0
  0
CLASS
  1
AEC_DISP_PROPS_AREA_DECOMPOSED
  2
AecDbDispPropsAreaDecomposed
  3
AecAreaCalculationBase70|Product Desc: Autodesk Architectural Desktop 2007 |Company: Autodesk,Inc. |WEB Address: www.autodesk.com
 90
      129
 91
        0
280
     0
281
     0
  0
CLASS
  1
AEC_DISP_REP_AREAGROUP
  2
AecDbDispRepAreaGroup
  3
AecAreaCalculationBase70|Product Desc: Autodesk Architectural Desktop 2007 |Company: Autodesk,Inc. |WEB Address: www.autodesk.com
 90
      129
 91
        0
280
     0
281
     0
  0
CLASS
  1
AEC_DISP_PROPS_AREAGROUP
  2
AecDbDispPropsAreaGroup
  3
AecAreaCalculationBase70|Product Desc: Autodesk Architectural Desktop 2007 |Company: Autodesk,Inc. |WEB Address: www.autodesk.com
 90
      129
 91
        0
280
     0
281
     0
  0
CLASS
  1
AEC_AECDBDISPREPAREA100
  2
AecDbDispRepArea100
  3
AecArchBase70|Product Desc: Autodesk Architectural Desktop 2007 |Company: Autodesk,Inc. |WEB Address: www.autodesk.com
 90
      129
 91
        0
280
     0
281
     0
  0
CLASS
  1
AEC_AECDBDISPREPAREAGROUP100
  2
AecDbDispRepAreaGroup100
  3
AecArchBase70|Product Desc: Autodesk Architectural Desktop 2007 |Company: Autodesk,Inc. |WEB Address: www.autodesk.com
 90
      129
 91
        0
280
     0
281
     0
  0
CLASS
  1
AEC_AECDBDISPREPBDGELEVLINEPLAN100
  2
AecDbDispRepBdgElevLinePlan100
  3
AecArchBase70|Product Desc: Autodesk Architectural Desktop 2007 |Company: Autodesk,Inc. |WEB Address: www.autodesk.com
 90
      129
 91
        0
280
     0
281
     0
  0
CLASS
  1
AEC_AECDBDISPREPBDGSECTIONLINEPLAN100
  2
AecDbDispRepBdgSectionLinePlan100
  3
AecArchBase70|Product Desc: Autodesk Architectural Desktop 2007 |Company: Autodesk,Inc. |WEB Address: www.autodesk.com
 90
      129
 91
        0
280
     0
281
     0
  0
CLASS
  1
AEC_AECDBDISPREPCEILINGGRIDPLAN100
  2
AecDbDispRepCeilingGridPlan100
  3
AecArchBase70|Product Desc: Autodesk Architectural Desktop 2007 |Company: Autodesk,Inc. |WEB Address: www.autodesk.com
 90
      129
 91
        0
280
     0
281
     0
  0
CLASS
  1
AEC_AECDBDISPREPCOLUMNGRIDPLAN100
  2
AecDbDispRepColumnGridPlan100
  3
AecArchBase70|Product Desc: Autodesk Architectural Desktop 2007 |Company: Autodesk,Inc. |WEB Address: www.autodesk.com
 90
      129
 91
        0
280
     0
281
     0
  0
CLASS
  1
AEC_AECDBDISPREPCURTAINWALLLAYOUTPLAN100
  2
AecDbDispRepCurtainWallLayoutPlan100
  3
AecArchBase70|Product Desc: Autodesk Architectural Desktop 2007 |Company: Autodesk,Inc. |WEB Address: www.autodesk.com
 90
      129
 91
        0
280
     0
281
     0
  0
CLASS
  1
AEC_AECDBDISPREPCURTAINWALLUNITPLAN100
  2
AecDbDispRepCurtainWallUnitPlan100
  3
AecArchBase70|Product Desc: Autodesk Architectural Desktop 2007 |Company: Autodesk,Inc. |WEB Address: www.autodesk.com
 90
      129
 91
        0
280
     0
281
     0
  0
CLASS
  1
AEC_AECDBDISPREPMVBLOCKREFPLAN100
  2
AecDbDispRepMvBlockRefPlan100
  3
AecArchBase70|Product Desc: Autodesk Architectural Desktop 2007 |Company: Autodesk,Inc. |WEB Address: www.autodesk.com
 90
      129
 91
        0
280
     0
281
     0
  0
CLASS
  1
AEC_AECDBDISPREPROOFPLAN100
  2
AecDbDispRepRoofPlan100
  3
AecArchBase70|Product Desc: Autodesk Architectural Desktop 2007 |Company: Autodesk,Inc. |WEB Address: www.autodesk.com
 90
      129
 91
        0
280
     0
281
     0
  0
CLASS
  1
AEC_AECDBDISPREPROOFSLABPLAN100
  2
AecDbDispRepRoofSlabPlan100
  3
AecArchBase70|Product Desc: Autodesk Architectural Desktop 2007 |Company: Autodesk,Inc. |WEB Address: www.autodesk.com
 90
      129
 91
        0
280
     0
281
     0
  0
CLASS
  1
AEC_AECDBDISPREPSLABPLAN100
  2
AecDbDispRepSlabPlan100
  3
AecArchBase70|Product Desc: Autodesk Architectural Desktop 2007 |Company: Autodesk,Inc. |WEB Address: www.autodesk.com
 90
      129
 91
        0
280
     0
281
     0
  0
CLASS
  1
AEC_AECDBDISPREPSPACEBOUNDARYPLAN100
  2
AecDbDispRepSpaceBoundaryPlan100
  3
AecArchBase70|Product Desc: Autodesk Architectural Desktop 2007 |Company: Autodesk,Inc. |WEB Address: www.autodesk.com
 90
      129
 91
        0
280
     0
281
     0
  0
CLASS
  1
AEC_AECDBDISPREPSPACEPLAN100
  2
AecDbDispRepSpacePlan100
  3
AecArchBase70|Product Desc: Autodesk Architectural Desktop 2007 |Company: Autodesk,Inc. |WEB Address: www.autodesk.com
 90
      129
 91
        0
280
     0
281
     0
  0
CLASS
  1
AEC_AECDBDISPREPWALLPLAN100
  2
AecDbDispRepWallPlan100
  3
AecArchBase70|Product Desc: Autodesk Architectural Desktop 2007 |Company: Autodesk,Inc. |WEB Address: www.autodesk.com
 90
      129
 91
        0
280
     0
281
     0
  0
CLASS
  1
AEC_AECDBDISPREPWINDOWASSEMBLYPLAN100
  2
AecDbDispRepWindowAssemblyPlan100
  3
AecArchBase70|Product Desc: Autodesk Architectural Desktop 2007 |Company: Autodesk,Inc. |WEB Address: www.autodesk.com
 90
      129
 91
        0
280
     0
281
     0
  0
CLASS
  1
AEC_AECDBDISPREPAREA50
  2
AecDbDispRepArea50
  3
AecArchBase70|Product Desc: Autodesk Architectural Desktop 2007 |Company: Autodesk,Inc. |WEB Address: www.autodesk.com
 90
      129
 91
        0
280
     0
281
     0
  0
CLASS
  1
AEC_AECDBDISPREPAREAGROUP50
  2
AecDbDispRepAreaGroup50
  3
AecArchBase70|Product Desc: Autodesk Architectural Desktop 2007 |Company: Autodesk,Inc. |WEB Address: www.autodesk.com
 90
      129
 91
        0
280
     0
281
     0
  0
CLASS
  1
AEC_AECDBDISPREPBDGELEVLINEPLAN50
  2
AecDbDispRepBdgElevLinePlan50
  3
AecArchBase70|Product Desc: Autodesk Architectural Desktop 2007 |Company: Autodesk,Inc. |WEB Address: www.autodesk.com
 90
      129
 91
        0
280
     0
281
     0
  0
CLASS
  1
AEC_AECDBDISPREPBDGSECTIONLINEPLAN50
  2
AecDbDispRepBdgSectionLinePlan50
  3
AecArchBase70|Product Desc: Autodesk Architectural Desktop 2007 |Company: Autodesk,Inc. |WEB Address: www.autodesk.com
 90
      129
 91
        0
280
     0
281
     0
  0
CLASS
  1
AEC_AECDBDISPREPCEILINGGRIDPLAN50
  2
AecDbDispRepCeilingGridPlan50
  3
AecArchBase70|Product Desc: Autodesk Architectural Desktop 2007 |Company: Autodesk,Inc. |WEB Address: www.autodesk.com
 90
      129
 91
        0
280
     0
281
     0
  0
CLASS
  1
AEC_AECDBDISPREPCOLUMNGRIDPLAN50
  2
AecDbDispRepColumnGridPlan50
  3
AecArchBase70|Product Desc: Autodesk Architectural Desktop 2007 |Company: Autodesk,Inc. |WEB Address: www.autodesk.com
 90
      129
 91
        0
280
     0
281
     0
  0
CLASS
  1
AEC_AECDBDISPREPCURTAINWALLLAYOUTPLAN50
  2
AecDbDispRepCurtainWallLayoutPlan50
  3
AecArchBase70|Product Desc: Autodesk Architectural Desktop 2007 |Company: Autodesk,Inc. |WEB Address: www.autodesk.com
 90
      129
 91
        0
280
     0
281
     0
  0
CLASS
  1
AEC_AECDBDISPREPCURTAINWALLUNITPLAN50
  2
AecDbDispRepCurtainWallUnitPlan50
  3
AecArchBase70|Product Desc: Autodesk Architectural Desktop 2007 |Company: Autodesk,Inc. |WEB Address: www.autodesk.com
 90
      129
 91
        0
280
     0
281
     0
  0
CLASS
  1
AEC_AECDBDISPREPMVBLOCKREFPLAN50
  2
AecDbDispRepMvBlockRefPlan50
  3
AecArchBase70|Product Desc: Autodesk Architectural Desktop 2007 |Company: Autodesk,Inc. |WEB Address: www.autodesk.com
 90
      129
 91
        0
280
     0
281
     0
  0
CLASS
  1
AEC_AECDBDISPREPROOFPLAN50
  2
AecDbDispRepRoofPlan50
  3
AecArchBase70|Product Desc: Autodesk Architectural Desktop 2007 |Company: Autodesk,Inc. |WEB Address: www.autodesk.com
 90
      129
 91
        0
280
     0
281
     0
  0
CLASS
  1
AEC_AECDBDISPREPROOFSLABPLAN50
  2
AecDbDispRepRoofSlabPlan50
  3
AecArchBase70|Product Desc: Autodesk Architectural Desktop 2007 |Company: Autodesk,Inc. |WEB Address: www.autodesk.com
 90
      129
 91
        0
280
     0
281
     0
  0
CLASS
  1
AEC_AECDBDISPREPSLABPLAN50
  2
AecDbDispRepSlabPlan50
  3
AecArchBase70|Product Desc: Autodesk Architectural Desktop 2007 |Company: Autodesk,Inc. |WEB Address: www.autodesk.com
 90
      129
 91
        0
280
     0
281
     0
  0
CLASS
  1
AEC_AECDBDISPREPSPACEBOUNDARYPLAN50
  2
AecDbDispRepSpaceBoundaryPlan50
  3
AecArchBase70|Product Desc: Autodesk Architectural Desktop 2007 |Company: Autodesk,Inc. |WEB Address: www.autodesk.com
 90
      129
 91
        0
280
     0
281
     0
  0
CLASS
  1
AEC_AECDBDISPREPSPACEPLAN50
  2
AecDbDispRepSpacePlan50
  3
AecArchBase70|Product Desc: Autodesk Architectural Desktop 2007 |Company: Autodesk,Inc. |WEB Address: www.autodesk.com
 90
      129
 91
        0
280
     0
281
     0
  0
CLASS
  1
AEC_AECDBDISPREPWALLPLAN50
  2
AecDbDispRepWallPlan50
  3
AecArchBase70|Product Desc: Autodesk Architectural Desktop 2007 |Company: Autodesk,Inc. |WEB Address: www.autodesk.com
 90
      129
 91
        0
280
     0
281
     0
  0
CLASS
  1
AEC_AECDBDISPREPWINDOWASSEMBLYPLAN50
  2
AecDbDispRepWindowAssemblyPlan50
  3
AecArchBase70|Product Desc: Autodesk Architectural Desktop 2007 |Company: Autodesk,Inc. |WEB Address: www.autodesk.com
 90
      129
 91
        0
280
     0
281
     0
  0
CLASS
  1
AEC_DB_DISP_REP_DIM_GROUP_PLAN100
  2
AecDbDispRepDimGroupPlan100
  3
AecArchBase70|Product Desc: Autodesk Architectural Desktop 2007 |Company: Autodesk,Inc. |WEB Address: www.autodesk.com
 90
      129
 91
        0
280
     0
281
     0
  0
CLASS
  1
AEC_DISP_PROPS_DIM
  2
AecDbDispPropsDimGroup
  3
AecArchBase70|Product Desc: Autodesk Architectural Desktop 2007 |Company: Autodesk,Inc. |WEB Address: www.autodesk.com
 90
      129
 91
        0
280
     0
281
     0
  0
CLASS
  1
AEC_DB_DISP_REP_DIM_GROUP_PLAN50
  2
AecDbDispRepDimGroupPlan50
  3
AecArchBase70|Product Desc: Autodesk Architectural Desktop 2007 |Company: Autodesk,Inc. |WEB Address: www.autodesk.com
 90
      129
 91
        0
280
     0
281
     0
  0
CLASS
  1
AEC_DB_DISP_REP_DIM_GROUP_PLAN
  2
AecDbDispRepDimGroupPlan
  3
AecArchBase70|Product Desc: Autodesk Architectural Desktop 2007 |Company: Autodesk,Inc. |WEB Address: www.autodesk.com
 90
      129
 91
        0
280
     0
281
     0
  0
CLASS
  1
AEC_DISP_REP_DOOR_PLAN_50
  2
AecDbDispRepDoorPlan50
  3
AecArchBase70|Product Desc: Autodesk Architectural Desktop 2007 |Company: Autodesk,Inc. |WEB Address: www.autodesk.com
 90
      129
 91
        0
280
     0
281
     0
  0
CLASS
  1
AEC_DISP_PROPS_DOOR_PLAN_50
  2
AecDbDispPropsDoorPlan50
  3
AecArchBase70|Product Desc: Autodesk Architectural Desktop 2007 |Company: Autodesk,Inc. |WEB Address: www.autodesk.com
 90
      129
 91
        0
280
     0
281
     0
  0
CLASS
  1
AEC_DISP_REP_DOOR_PLAN_HEKTO
  2
AecDbDispRepDoorPlanHekto
  3
AecArchBase70|Product Desc: Autodesk Architectural Desktop 2007 |Company: Autodesk,Inc. |WEB Address: www.autodesk.com
 90
      129
 91
        0
280
     0
281
     0
  0
CLASS
  1
AEC_DISP_PROPS_DOOR_PLAN_100
  2
AecDbDispPropsDoorPlan100
  3
AecArchBase70|Product Desc: Autodesk Architectural Desktop 2007 |Company: Autodesk,Inc. |WEB Address: www.autodesk.com
 90
      129
 91
        0
280
     0
281
     0
  0
CLASS
  1
AEC_DISP_REP_DOOR_THRESHOLD_SYMBOL_PLAN
  2
AecDbDispRepDoorThresholdSymbolPlan
  3
AecArchBase70|Product Desc: Autodesk Architectural Desktop 2007 |Company: Autodesk,Inc. |WEB Address: www.autodesk.com
 90
      129
 91
        0
280
     0
281
     0
  0
CLASS
  1
AEC_DISP_PROPS_DOOR_THRESHOLD_SYMBOL_PLAN
  2
AecDbDispPropsDoorThresholdSymbolPlan
  3
AecArchBase70|Product Desc: Autodesk Architectural Desktop 2007 |Company: Autodesk,Inc. |WEB Address: www.autodesk.com
 90
      129
 91
        0
280
     0
281
     0
  0
CLASS
  1
AEC_DISPREPAECDBDISPREPMASSELEMPLAN100
  2
AecDbDispRepMassElemPlan100
  3
AecArchBase70|Product Desc: Autodesk Architectural Desktop 2007 |Company: Autodesk,Inc. |WEB Address: www.autodesk.com
 90
      129
 91
        0
280
     0
281
     0
  0
CLASS
  1
AEC_DISPROPSMASSELEMPLANCOMMON
  2
AecDbDispPropsMassElemPlanCommon
  3
AecArchBase70|Product Desc: Autodesk Architectural Desktop 2007 |Company: Autodesk,Inc. |WEB Address: www.autodesk.com
 90
      129
 91
        0
280
     0
281
     0
  0
CLASS
  1
AEC_DISPREPAECDBDISPREPMASSELEMPLAN50
  2
AecDbDispRepMassElemPlan50
  3
AecArchBase70|Product Desc: Autodesk Architectural Desktop 2007 |Company: Autodesk,Inc. |WEB Address: www.autodesk.com
 90
      129
 91
        0
280
     0
281
     0
  0
CLASS
  1
AEC_DISPREPAECDBDISPREPMASSGROUPPLAN100
  2
AecDbDispRepMassGroupPlan100
  3
AecArchBase70|Product Desc: Autodesk Architectural Desktop 2007 |Company: Autodesk,Inc. |WEB Address: www.autodesk.com
 90
      129
 91
        0
280
     0
281
     0
  0
CLASS
  1
AEC_DISPROPSMASSGROUPPLANCOMMON
  2
AecDbDispPropsMassGroupPlanCommon
  3
AecArchBase70|Product Desc: Autodesk Architectural Desktop 2007 |Company: Autodesk,Inc. |WEB Address: www.autodesk.com
 90
      129
 91
        0
280
     0
281
     0
  0
CLASS
  1
AEC_DISPREPAECDBDISPREPMASSGROUPPLAN50
  2
AecDbDispRepMassGroupPlan50
  3
AecArchBase70|Product Desc: Autodesk Architectural Desktop 2007 |Company: Autodesk,Inc. |WEB Address: www.autodesk.com
 90
      129
 91
        0
280
     0
281
     0
  0
CLASS
  1
AEC_DISPREPAECDBDISPREPOPENINGPLAN100
  2
AecDbDispRepOpeningPlan100
  3
AecArchBase70|Product Desc: Autodesk Architectural Desktop 2007 |Company: Autodesk,Inc. |WEB Address: www.autodesk.com
 90
      129
 91
        0
280
     0
281
     0
  0
CLASS
  1
AEC_DISPROPSOPENINGPLANCOMMONHATCHED
  2
AecDbDispPropsOpeningPlanCommonHatched
  3
AecArchBase70|Product Desc: Autodesk Architectural Desktop 2007 |Company: Autodesk,Inc. |WEB Address: www.autodesk.com
 90
      129
 91
        0
280
     0
281
     0
  0
CLASS
  1
AEC_DISPREPAECDBDISPREPOPENINGPLAN50
  2
AecDbDispRepOpeningPlan50
  3
AecArchBase70|Product Desc: Autodesk Architectural Desktop 2007 |Company: Autodesk,Inc. |WEB Address: www.autodesk.com
 90
      129
 91
        0
280
     0
281
     0
  0
CLASS
  1
AEC_DISPREPAECDBDISPREPOPENINGPLANREFLECTED
  2
AecDbDispRepOpeningPlanReflected
  3
AecArchBase70|Product Desc: Autodesk Architectural Desktop 2007 |Company: Autodesk,Inc. |WEB Address: www.autodesk.com
 90
      129
 91
        0
280
     0
281
     0
  0
CLASS
  1
AEC_DISPROPSOPENINGPLANCOMMON
  2
AecDbDispPropsOpeningPlanCommon
  3
AecArchBase70|Product Desc: Autodesk Architectural Desktop 2007 |Company: Autodesk,Inc. |WEB Address: www.autodesk.com
 90
      129
 91
        0
280
     0
281
     0
  0
CLASS
  1
AEC_DISPREPAECDBDISPREPOPENINGSILLPLAN
  2
AecDbDispRepOpeningSillPlan
  3
AecArchBase70|Product Desc: Autodesk Architectural Desktop 2007 |Company: Autodesk,Inc. |WEB Address: www.autodesk.com
 90
      129
 91
        0
280
     0
281
     0
  0
CLASS
  1
AEC_DISPROPSOPENINGSILLPLAN
  2
AecDbDispPropsOpeningSillPlan
  3
AecArchBase70|Product Desc: Autodesk Architectural Desktop 2007 |Company: Autodesk,Inc. |WEB Address: www.autodesk.com
 90
      129
 91
        0
280
     0
281
     0
  0
CLASS
  1
AEC_DISP_REP_RAILING_PLAN_100
  2
AecDbDispRepRailingPlan100
  3
AecArchBase70|Product Desc: Autodesk Architectural Desktop 2007 |Company: Autodesk,Inc. |WEB Address: www.autodesk.com
 90
      129
 91
        0
280
     0
281
     0
  0
CLASS
  1
AEC_DISP_ROPS_RAILING_PLAN_100
  2
AecDbDispPropsRailingPlan100
  3
AecArchBase70|Product Desc: Autodesk Architectural Desktop 2007 |Company: Autodesk,Inc. |WEB Address: www.autodesk.com
 90
      129
 91
        0
280
     0
281
     0
  0
CLASS
  1
AEC_DISP_REP_RAILING_PLAN_50
  2
AecDbDispRepRailingPlan50
  3
AecArchBase70|Product Desc: Autodesk Architectural Desktop 2007 |Company: Autodesk,Inc. |WEB Address: www.autodesk.com
 90
      129
 91
        0
280
     0
281
     0
  0
CLASS
  1
AEC_DISP_ROPS_RAILING_PLAN_50
  2
AecDbDispPropsRailingPlan50
  3
AecArchBase70|Product Desc: Autodesk Architectural Desktop 2007 |Company: Autodesk,Inc. |WEB Address: www.autodesk.com
 90
      129
 91
        0
280
     0
281
     0
  0
CLASS
  1
AEC_DISP_REP_STAIR_PLAN_100
  2
AecDbDispRepStairPlan100
  3
AecArchBase70|Product Desc: Autodesk Architectural Desktop 2007 |Company: Autodesk,Inc. |WEB Address: www.autodesk.com
 90
      129
 91
        0
280
     0
281
     0
  0
CLASS
  1
AEC_DISP_ROPS_STAIR_PLAN_100
  2
AecDbDispPropsStairPlan100
  3
AecArchBase70|Product Desc: Autodesk Architectural Desktop 2007 |Company: Autodesk,Inc. |WEB Address: www.autodesk.com
 90
      129
 91
        0
280
     0
281
     0
  0
CLASS
  1
AEC_DISP_REP_STAIR_PLAN_50
  2
AecDbDispRepStairPlan50
  3
AecArchBase70|Product Desc: Autodesk Architectural Desktop 2007 |Company: Autodesk,Inc. |WEB Address: www.autodesk.com
 90
      129
 91
        0
280
     0
281
     0
  0
CLASS
  1
AEC_DISP_ROPS_STAIR_PLAN_50
  2
AecDbDispPropsStairPlan50
  3
AecArchBase70|Product Desc: Autodesk Architectural Desktop 2007 |Company: Autodesk,Inc. |WEB Address: www.autodesk.com
 90
      129
 91
        0
280
     0
281
     0
  0
CLASS
  1
AEC_DISP_REP_WINDOW_PLAN_100
  2
AecDbDispRepWindowPlan100
  3
AecArchBase70|Product Desc: Autodesk Architectural Desktop 2007 |Company: Autodesk,Inc. |WEB Address: www.autodesk.com
 90
      129
 91
        0
280
     0
281
     0
  0
CLASS
  1
AEC_DISP_PROPS_WINDOW_PLAN_100
  2
AecDbDispPropsWindowPlan100
  3
AecArchBase70|Product Desc: Autodesk Architectural Desktop 2007 |Company: Autodesk,Inc. |WEB Address: www.autodesk.com
 90
      129
 91
        0
280
     0
281
     0
  0
CLASS
  1
AEC_DISP_REP_WINDOW_PLAN_50
  2
AecDbDispRepWindowPlan50
  3
AecArchBase70|Product Desc: Autodesk Architectural Desktop 2007 |Company: Autodesk,Inc. |WEB Address: www.autodesk.com
 90
      129
 91
        0
280
     0
281
     0
  0
CLASS
  1
AEC_DISP_PROPS_WINDOW_PLAN_50
  2
AecDbDispPropsWindowPlan50
  3
AecArchBase70|Product Desc: Autodesk Architectural Desktop 2007 |Company: Autodesk,Inc. |WEB Address: www.autodesk.com
 90
      129
 91
        0
280
     0
281
     0
  0
CLASS
  1
AEC_DISP_REP_SET
  2
AecDbDispRepSet
  3
AecBase70|Product Desc: Autodesk Architectural Desktop 2007 |Company: Autodesk,Inc. |WEB Address: www.autodesk.com
 90
      129
 91
        0
280
     0
281
     0
  0
CLASS
  1
AEC_DISP_REP_CONFIG
  2
AecDbDispRepConfig
  3
AecBase70|Product Desc: Autodesk Architectural Desktop 2007 |Company: Autodesk,Inc. |WEB Address: www.autodesk.com
 90
      129
 91
        0
280
     0
281
     0
  0
CLASS
  1
AEC_LAYERKEY_STYLE
  2
AecDbLayerKeyStyle
  3
AecBase70|Product Desc: Autodesk Architectural Desktop 2007 |Company: Autodesk,Inc. |WEB Address: www.autodesk.com
 90
      129
 91
        0
280
     0
281
     0
  0
CLASS
  1
AEC_VARS_ARCHBASE
  2
AecDbVarsArchBase
  3
AecArchBase70|Product Desc: Autodesk Architectural Desktop 2007 |Company: Autodesk,Inc. |WEB Address: www.autodesk.com
 90
      129
 91
        0
280
     0
281
     0
  0
CLASS
  1
BINRECORD
  2
AcAecBinRecord
  3
AecBase70|Product Desc: Autodesk Architectural Desktop 2007 |Company: Autodesk,Inc. |WEB Address: www.autodesk.com
 90
      129
 91
        0
280
     0
281
     0
  0
CLASS
  1
AEC_VARS_MUNICH
  2
AecDbVarsMunich
  3
AecArchBase70|Product Desc: Autodesk Architectural Desktop 2007 |Company: Autodesk,Inc. |WEB Address: www.autodesk.com
 90
      129
 91
        0
280
     0
281
     0
  0
CLASS
  1
AEC_MATERIAL_DEF
  2
AecDbMaterialDef
  3
AecBase70|Product Desc: Autodesk Architectural Desktop 2007 |Company: Autodesk,Inc. |WEB Address: www.autodesk.com
 90
      129
 91
        0
280
     0
281
     0
  0
CLASS
  1
AEC_ENDCAP_STYLE
  2
AecDbEndcapStyle
  3
AecArchBase70|Product Desc: Autodesk Architectural Desktop 2007 |Company: Autodesk,Inc. |WEB Address: www.autodesk.com
 90
      129
 91
        0
280
     0
281
     0
  0
CLASS
  1
AEC_FRAME_DEF
  2
AecDbOpeningEndcapStyle
  3
AecArchBase70|Product Desc: Autodesk Architectural Desktop 2007 |Company: Autodesk,Inc. |WEB Address: www.autodesk.com
 90
      129
 91
        0
280
     0
281
     0
  0
CLASS
  1
AEC_CLEANUP_GROUP_DEF
  2
AecDbCleanupGroupDef
  3
AecArchBase70|Product Desc: Autodesk Architectural Desktop 2007 |Company: Autodesk,Inc. |WEB Address: www.autodesk.com
 90
      129
 91
        0
280
     0
281
     0
  0
CLASS
  1
AEC_WALL_STYLE
  2
AecDbWallStyle
  3
AecArchBase70|Product Desc: Autodesk Architectural Desktop 2007 |Company: Autodesk,Inc. |WEB Address: www.autodesk.com
 90
      129
 91
        0
280
     0
281
     0
  0
CLASS
  1
AEC_WALL
  2
AecDbWall
  3
AecArchBase70|Product Desc: Autodesk Architectural Desktop 2007 |Company: Autodesk,Inc. |WEB Address: www.autodesk.com
 90
      893
 91
        0
280
     0
281
     1
  0
CLASS
  1
MATERIAL
  2
AcDbMaterial
  3
ObjectDBX Classes
 90
     1153
 91
        3
280
     0
281
     0
  0
CLASS
  1
AEC_AECSDBDISPREPMEMBERPLAN100
  2
AecsDbDispRepMemberPlan100
  3
AecArchBase70|Product Desc: Autodesk Architectural Desktop 2007 |Company: Autodesk,Inc. |WEB Address: www.autodesk.com
 90
      129
 91
        0
280
     0
281
     0
  0
CLASS
  1
AEC_MASS_ELEM_STYLE
  2
AecDbMassElemStyle
  3
AecBaseEx70|Product Desc: Autodesk Architectural Desktop 2007 |Company: Autodesk,Inc. |WEB Address: www.autodesk.com
 90
      129
 91
        0
280
     0
281
     0
  0
CLASS
  1
AEC_WINDOW_STYLE
  2
AecDbWindowStyle
  3
AecArchBase70|Product Desc: Autodesk Architectural Desktop 2007 |Company: Autodesk,Inc. |WEB Address: www.autodesk.com
 90
      129
 91
        0
280
     0
281
     0
  0
CLASS
  1
AEC_WINDOW
  2
AecDbWindow
  3
AecArchBase70|Product Desc: Autodesk Architectural Desktop 2007 |Company: Autodesk,Inc. |WEB Address: www.autodesk.com
 90
      893
 91
        0
280
     0
281
     1
  0
CLASS
  1
AEC_ANCHOR_OPENINGBASE_TO_WALL
  2
AecDbAnchorOpeningBaseToWall
  3
AecArchBase70|Product Desc: Autodesk Architectural Desktop 2007 |Company: Autodesk,Inc. |WEB Address: www.autodesk.com
 90
      129
 91
        0
280
     0
281
     0
  0
CLASS
  1
AEC_AECSDBDISPREPMEMBERPLAN50
  2
AecsDbDispRepMemberPlan50
  3
AecArchBase70|Product Desc: Autodesk Architectural Desktop 2007 |Company: Autodesk,Inc. |WEB Address: www.autodesk.com
 90
      129
 91
        0
280
     0
281
     0
  0
CLASS
  1
AEC_SCHEDULE_DATA_FORMAT
  2
AecDbScheduleDataFormat
  3
AecBase70|Product Desc: Autodesk Architectural Desktop 2007 |Company: Autodesk,Inc. |WEB Address: www.autodesk.com
 90
      129
 91
        0
280
     0
281
     0
  0
CLASS
  1
AEC_PROPERTY_SET_DEF
  2
AecDbPropertySetDef
  3
AecBase70|Product Desc: Autodesk Architectural Desktop 2007 |Company: Autodesk,Inc. |WEB Address: www.autodesk.com
 90
      129
 91
        0
280
     0
281
     0
  0
CLASS
  1
AecDbPropertySet
  2
AecDbPropertySet
  3
AecBase70|Product Desc: Autodesk Architectural Desktop 2007 |Company: Autodesk,Inc. |WEB Address: www.autodesk.com
 90
      129
 91
        0
280
     0
281
     0
  0
CLASS
  1
AEC_MASS_ELEM
  2
AecDbMassElem
  3
AecBaseEx70|Product Desc: Autodesk Architectural Desktop 2007 |Company: Autodesk,Inc. |WEB Address: www.autodesk.com
 90
      893
 91
        0
280
     0
281
     1
  0
CLASS
  1
AEC_BDG_SECTIONLINE
  2
AecDbBdgSectionLine
  3
AecArchBase70|Product Desc: Autodesk Architectural Desktop 2007 |Company: Autodesk,Inc. |WEB Address: www.autodesk.com
 90
      893
 91
        0
280
     0
281
     1
  0
CLASS
  1
AEC_MVBLOCK_DEF
  2
AecDbMvBlockDef
  3
AecBase70|Product Desc: Autodesk Architectural Desktop 2007 |Company: Autodesk,Inc. |WEB Address: www.autodesk.com
 90
      129
 91
        0
280
     0
281
     0
  0
CLASS
  1
AEC_MVBLOCK_REF
  2
AecDbMvBlockRef
  3
AecBase70|Product Desc: Autodesk Architectural Desktop 2007 |Company: Autodesk,Inc. |WEB Address: www.autodesk.com
 90
      893
 91
        0
280
     0
281
     1
  0
CLASS
  1
AEC_ANCHOR_ENT_TO_LAYOUT_NODE
  2
AecDbAnchorEntToLayoutNode
  3
AecBase70|Product Desc: Autodesk Architectural Desktop 2007 |Company: Autodesk,Inc. |WEB Address: www.autodesk.com
 90
      129
 91
        0
280
     0
281
     0
  0
CLASS
  1
AEC_2DSECTION_STYLE
  2
AecDb2dSectionStyle
  3
AecBase70|Product Desc: Autodesk Architectural Desktop 2007 |Company: Autodesk,Inc. |WEB Address: www.autodesk.com
 90
      129
 91
        0
280
     0
281
     0
  0
CLASS
  1
AEC_2D_SECTION
  2
AecDb2dSection
  3
AecBase70|Product Desc: Autodesk Architectural Desktop 2007 |Company: Autodesk,Inc. |WEB Address: www.autodesk.com
 90
      893
 91
        0
280
     0
281
     1
  0
CLASS
  1
AEC_DIM_STYLE
  2
AecDbDimensionStyle
  3
AecArchBase70|Product Desc: Autodesk Architectural Desktop 2007 |Company: Autodesk,Inc. |WEB Address: www.autodesk.com
 90
      129
 91
        0
280
     0
281
     0
  0
CLASS
  1
AEC_DIMENSION_GROUP
  2
AecDbDimensionGroup
  3
AecArchBase70|Product Desc: Autodesk Architectural Desktop 2007 |Company: Autodesk,Inc. |WEB Address: www.autodesk.com
 90
      893
 91
        0
280
     0
281
     1
  0
CLASS
  1
AEC_ANCHOR_TO_N_REF
  2
AecDbAnchorToNRef
  3
AecArchBase70|Product Desc: Autodesk Architectural Desktop 2007 |Company: Autodesk,Inc. |WEB Address: www.autodesk.com
 90
      129
 91
        0
280
     0
281
     0
  0
CLASS
  1
AEC_DIMGROUP_OVERRIDE_CONTAINER
  2
AecDbDimensionGroupOverride
  3
AecArchBase70|Product Desc: Autodesk Architectural Desktop 2007 |Company: Autodesk,Inc. |WEB Address: www.autodesk.com
 90
      129
 91
        0
280
     0
281
     0
  0
CLASS
  1
AEC_DOOR_STYLE
  2
AecDbDoorStyle
  3
AecArchBase70|Product Desc: Autodesk Architectural Desktop 2007 |Company: Autodesk,Inc. |WEB Address: www.autodesk.com
 90
      129
 91
        0
280
     0
281
     0
  0
CLASS
  1
AEC_DOOR
  2
AecDbDoor
  3
AecArchBase70|Product Desc: Autodesk Architectural Desktop 2007 |Company: Autodesk,Inc. |WEB Address: www.autodesk.com
 90
      893
 91
        0
280
     0
281
     1
  0
CLASS
  1
AEC_STAIR_WINDER_TYPE_BALANCED
  2
AecDbStairWinderTypeBalanced
  3
AecArchBase70|Product Desc: Autodesk Architectural Desktop 2007 |Company: Autodesk,Inc. |WEB Address: www.autodesk.com
 90
      129
 91
        0
280
     0
281
     0
  0
CLASS
  1
AEC_STAIR_WINDER_TYPE_SINGLE_POINT
  2
AecDbStairWinderTypeSinglePoint
  3
AecArchBase70|Product Desc: Autodesk Architectural Desktop 2007 |Company: Autodesk,Inc. |WEB Address: www.autodesk.com
 90
      129
 91
        0
280
     0
281
     0
  0
CLASS
  1
AEC_STAIR_WINDER_TYPE_MANUAL
  2
AecDbStairWinderTypeManual
  3
AecArchBase70|Product Desc: Autodesk Architectural Desktop 2007 |Company: Autodesk,Inc. |WEB Address: www.autodesk.com
 90
      129
 91
        0
280
     0
281
     0
  0
CLASS
  1
AEC_STAIR_WINDER_STYLE
  2
AecDbStairWinderStyle
  3
AecArchBase70|Product Desc: Autodesk Architectural Desktop 2007 |Company: Autodesk,Inc. |WEB Address: www.autodesk.com
 90
      129
 91
        0
280
     0
281
     0
  0
CLASS
  1
AEC_STAIR_STYLE
  2
AecDbStairStyle
  3
AecArchBase70|Product Desc: Autodesk Architectural Desktop 2007 |Company: Autodesk,Inc. |WEB Address: www.autodesk.com
 90
      129
 91
        0
280
     0
281
     0
  0
CLASS
  1
AEC_SLABEDGE_STYLE
  2
AecDbSlabEdgeStyle
  3
AecArchBase70|Product Desc: Autodesk Architectural Desktop 2007 |Company: Autodesk,Inc. |WEB Address: www.autodesk.com
 90
      129
 91
        0
280
     0
281
     0
  0
CLASS
  1
AEC_SLAB_STYLE
  2
AecDbSlabStyle
  3
AecArchBase70|Product Desc: Autodesk Architectural Desktop 2007 |Company: Autodesk,Inc. |WEB Address: www.autodesk.com
 90
      129
 91
        0
280
     0
281
     0
  0
CLASS
  1
AEC_SLAB
  2
AecDbSlab
  3
AecArchBase70|Product Desc: Autodesk Architectural Desktop 2007 |Company: Autodesk,Inc. |WEB Address: www.autodesk.com
 90
      893
 91
        0
280
     0
281
     1
  0
CLASS
  1
AEC_AECDBAREASTYLE
  2
AecDbAreaStyle
  3
AecAreaCalculationBase70|Product Desc: Autodesk Architectural Desktop 2007 |Company: Autodesk,Inc. |WEB Address: www.autodesk.com
 90
      129
 91
        0
280
     0
281
     0
  0
CLASS
  1
AEC_AECDBAREAPROPOSALNAMES
  2
AecDbAreaProposalNames
  3
AecAreaCalculationBase70|Product Desc: Autodesk Architectural Desktop 2007 |Company: Autodesk,Inc. |WEB Address: www.autodesk.com
 90
      129
 91
        0
280
     0
281
     0
  0
CLASS
  1
AEC_AREA
  2
AecDbArea
  3
AecAreaCalculationBase70|Product Desc: Autodesk Architectural Desktop 2007 |Company: Autodesk,Inc. |WEB Address: www.autodesk.com
 90
      893
 91
        0
280
     0
281
     1
  0
CLASS
  1
AEC_AECDBAREAGROUPSTYLE
  2
AecDbAreaGroupStyle
  3
AecAreaCalculationBase70|Product Desc: Autodesk Architectural Desktop 2007 |Company: Autodesk,Inc. |WEB Address: www.autodesk.com
 90
      129
 91
        0
280
     0
281
     0
  0
CLASS
  1
AEC_AREAGROUP
  2
AecDbAreaGroup
  3
AecAreaCalculationBase70|Product Desc: Autodesk Architectural Desktop 2007 |Company: Autodesk,Inc. |WEB Address: www.autodesk.com
 90
      893
 91
        0
280
     0
281
     1
  0
CLASS
  1
AEC_AECDBAREAMODIFIER
  2
AecDbAreaModifier
  3
AecAreaCalculationBase70|Product Desc: Autodesk Architectural Desktop 2007 |Company: Autodesk,Inc. |WEB Address: www.autodesk.com
 90
      129
 91
        0
280
     0
281
     0
  0
CLASS
  1
AECS_MEMBER_NODE_SHAPE
  2
AecsDbMemberNodeShape
  3
AecArchBase70|Product Desc: Autodesk Architectural Desktop 2007 |Company: Autodesk,Inc. |WEB Address: www.autodesk.com
 90
      129
 91
        0
280
     0
281
     0
  0
CLASS
  1
AECS_MEMBER_STYLE
  2
AecsDbMemberStyle
  3
AecArchBase70|Product Desc: Autodesk Architectural Desktop 2007 |Company: Autodesk,Inc. |WEB Address: www.autodesk.com
 90
      129
 91
        0
280
     0
281
     0
  0
CLASS
  1
AECS_MEMBER
  2
AecsDbMember
  3
AecArchBase70|Product Desc: Autodesk Architectural Desktop 2007 |Company: Autodesk,Inc. |WEB Address: www.autodesk.com
 90
      893
 91
        0
280
     0
281
     1
  0
CLASS
  1
AEC_CLASSIFICATION_SYSTEM_DEF
  2
AecDbClassificationSystemDef
  3
AecBase70|Product Desc: Autodesk Architectural Desktop 2007 |Company: Autodesk,Inc. |WEB Address: www.autodesk.com
 90
      129
 91
        0
280
     0
281
     0
  0
CLASS
  1
AEC_CLASSIFICATION_DEF
  2
AecDbClassificationDef
  3
AecBase70|Product Desc: Autodesk Architectural Desktop 2007 |Company: Autodesk,Inc. |WEB Address: www.autodesk.com
 90
      129
 91
        0
280
     0
281
     0
  0
CLASS
  1
AEC_STAIR
  2
AecDbStair
  3
AecArchBase70|Product Desc: Autodesk Architectural Desktop 2007 |Company: Autodesk,Inc. |WEB Address: www.autodesk.com
 90
      893
 91
        0
280
     0
281
     1
  0
CLASS
  1
AEC_WINDOW_ASSEMBLY_STYLE
  2
AecDbWindowAssemblyStyle
  3
AecArchBase70|Product Desc: Autodesk Architectural Desktop 2007 |Company: Autodesk,Inc. |WEB Address: www.autodesk.com
 90
      129
 91
        0
280
     0
281
     0
  0
CLASS
  1
AEC_STDSIZE_OPENINGS
  2
AecDbStdSizeOpeningList
  3
AecArchBase70|Product Desc: Autodesk Architectural Desktop 2007 |Company: Autodesk,Inc. |WEB Address: www.autodesk.com
 90
      129
 91
        0
280
     0
281
     0
  0
CLASS
  1
AEC_POLYGON_STYLE
  2
AecDbPolygonStyle
  3
AecBase70|Product Desc: Autodesk Architectural Desktop 2007 |Company: Autodesk,Inc. |WEB Address: www.autodesk.com
 90
      129
 91
        0
280
     0
281
     0
  0
CLASS
  1
AEC_CURTAIN_WALL_UNIT_STYLE
  2
AecDbCurtainWallUnitStyle
  3
AecArchBase70|Product Desc: Autodesk Architectural Desktop 2007 |Company: Autodesk,Inc. |WEB Address: www.autodesk.com
 90
      129
 91
        0
280
     0
281
     0
  0
CLASS
  1
AEC_CURTAIN_WALL_LAYOUT_STYLE
  2
AecDbCurtainWallLayoutStyle
  3
AecArchBase70|Product Desc: Autodesk Architectural Desktop 2007 |Company: Autodesk,Inc. |WEB Address: www.autodesk.com
 90
      129
 91
        0
280
     0
281
     0
  0
CLASS
  1
AEC_CURTAIN_WALL_LAYOUT
  2
AecDbCurtainWallLayout
  3
AecArchBase70|Product Desc: Autodesk Architectural Desktop 2007 |Company: Autodesk,Inc. |WEB Address: www.autodesk.com
 90
      893
 91
        0
280
     0
281
     1
  0
CLASS
  1
AEC_CURTAIN_WALL_UNIT
  2
AecDbCurtainWallUnit
  3
AecArchBase70|Product Desc: Autodesk Architectural Desktop 2007 |Company: Autodesk,Inc. |WEB Address: www.autodesk.com
 90
      893
 91
        0
280
     0
281
     1
  0
CLASS
  1
AEC_ANCHOR_ENT_TO_GRID_ASSEMBLY
  2
AecDbAnchorEntToGridAssembly
  3
AecBase70|Product Desc: Autodesk Architectural Desktop 2007 |Company: Autodesk,Inc. |WEB Address: www.autodesk.com
 90
      129
 91
        0
280
     0
281
     0
  0
CLASS
  1
AEC_AECDBAREAGROUPDEF
  2
AecDbAreaGroupDef
  3
AecAreaCalculationBase70|Product Desc: Autodesk Architectural Desktop 2007 |Company: Autodesk,Inc. |WEB Address: www.autodesk.com
 90
      129
 91
        0
280
     0
281
     0
  0
CLASS
  1
AEC_PROFILE_DEF
  2
AecDbProfileDef
  3
AecBase70|Product Desc: Autodesk Architectural Desktop 2007 |Company: Autodesk,Inc. |WEB Address: www.autodesk.com
 90
      129
 91
        0
280
     0
281
     0
  0
CLASS
  1
AEC_RAILING_STYLE
  2
AecDbRailingStyle
  3
AecArchBase70|Product Desc: Autodesk Architectural Desktop 2007 |Company: Autodesk,Inc. |WEB Address: www.autodesk.com
 90
      129
 91
        0
280
     0
281
     0
  0
CLASS
  1
AEC_ROOFSLABEDGE_STYLE
  2
AecDbRoofSlabEdgeStyle
  3
AecArchBase70|Product Desc: Autodesk Architectural Desktop 2007 |Company: Autodesk,Inc. |WEB Address: www.autodesk.com
 90
      129
 91
        0
280
     0
281
     0
  0
CLASS
  1
AEC_ROOFSLAB_STYLE
  2
AecDbRoofSlabStyle
  3
AecArchBase70|Product Desc: Autodesk Architectural Desktop 2007 |Company: Autodesk,Inc. |WEB Address: www.autodesk.com
 90
      129
 91
        0
280
     0
281
     0
  0
CLASS
  1
AEC_SPACE_STYLES
  2
AecDbSpaceStyle
  3
AecArchBase70|Product Desc: Autodesk Architectural Desktop 2007 |Company: Autodesk,Inc. |WEB Address: www.autodesk.com
 90
      129
 91
        0
280
     0
281
     0
  0
CLASS
  1
AEC_MASKBLOCK_DEF
  2
AecDbMaskBlockDef
  3
AecBase70|Product Desc: Autodesk Architectural Desktop 2007 |Company: Autodesk,Inc. |WEB Address: www.autodesk.com
 90
      129
 91
        0
280
     0
281
     0
  0
CLASS
  1
AEC_OPENING
  2
AecDbOpening
  3
AecArchBase70|Product Desc: Autodesk Architectural Desktop 2007 |Company: Autodesk,Inc. |WEB Address: www.autodesk.com
 90
      893
 91
        0
280
     0
281
     1
  0
CLASS
  1
TABLESTYLE
  2
AcDbTableStyle
  3
ObjectDBX Classes
 90
     4095
 91
        2
280
     0
281
     0
  0
CLASS
  1
DICTIONARYVAR
  2
AcDbDictionaryVar
  3
ObjectDBX Classes
 90
        0
 91
        7
280
     0
281
     0
  0
CLASS
  1
SORTENTSTABLE
  2
AcDbSortentsTable
  3
ObjectDBX Classes
 90
        0
 91
        2
280
     0
281
     0
  0
CLASS
  1
AEC_DISP_REP_DISPLAYTHEME
  2
AecDbDispRepDisplayTheme
  3
AecBase70|Product Desc: Autodesk Architectural Desktop 2007 |Company: Autodesk,Inc. |WEB Address: www.autodesk.com
 90
      129
 91
        0
280
     0
281
     0
  0
CLASS
  1
AEC_DISP_PROPS_DISPLAYTHEME
  2
AecDbDispPropsDisplayTheme
  3
AecBase70|Product Desc: Autodesk Architectural Desktop 2007 |Company: Autodesk,Inc. |WEB Address: www.autodesk.com
 90
      129
 91
        0
280
     0
281
     0
  0
CLASS
  1
AEC_DISP_REP_ANCHOR_EXT_TAG_TO_ENT
  2
AecDbDispRepAnchorExtendedTagToEnt
  3
AecBase70|Product Desc: Autodesk Architectural Desktop 2007 |Company: Autodesk,Inc. |WEB Address: www.autodesk.com
 90
      129
 91
        0
280
     0
281
     0
  0
CLASS
  1
AEC_STDSTYLE_CHANGE_TRACKER
  2
AecDbStdStyleChangeTracker
  3
AecProjectBase70|Product Desc: Autodesk Architectural Desktop 2007 |Company: Autodesk,Inc. |WEB Address: www.autodesk.com
 90
      129
 91
        0
280
     0
281
     0
  0
CLASS
  1
VISUALSTYLE
  2
AcDbVisualStyle
  3
ObjectDBX Classes
 90
     4095
 91
        3
280
     0
281
     0
  0
CLASS
  1
AEC_DISP_REP_SPACE_DECOMPOSED
  2
AecDbDispRepSpaceDecomposed
  3
AecArchBase70|Product Desc: Autodesk Architectural Desktop 2007 |Company: Autodesk,Inc. |WEB Address: www.autodesk.com
 90
      129
 91
        0
280
     0
281
     0
  0
CLASS
  1
AEC_DISP_PROPS_SPACE_DECOMPOSED
  2
AecDbDispPropsSpaceDecomposed
  3
AecArchBase70|Product Desc: Autodesk Architectural Desktop 2007 |Company: Autodesk,Inc. |WEB Address: www.autodesk.com
 90
      129
 91
        0
280
     0
281
     0
  0
CLASS
  1
AEC_DISP_REP_ZONE
  2
AecDbDispRepZone
  3
AecArchBase70|Product Desc: Autodesk Architectural Desktop 2007 |Company: Autodesk,Inc. |WEB Address: www.autodesk.com
 90
      129
 91
        0
280
     0
281
     0
  0
CLASS
  1
AEC_DISP_PROPS_ZONE
  2
AecDbDispPropsZone
  3
AecArchBase70|Product Desc: Autodesk Architectural Desktop 2007 |Company: Autodesk,Inc. |WEB Address: www.autodesk.com
 90
      129
 91
        0
280
     0
281
     0
  0
CLASS
  1
AEC_AECDBDISPREPZONE100
  2
AecDbDispRepZonePlan100
  3
AecArchBase70|Product Desc: Autodesk Architectural Desktop 2007 |Company: Autodesk,Inc. |WEB Address: www.autodesk.com
 90
      129
 91
        0
280
     0
281
     0
  0
CLASS
  1
AEC_AECDBDISPREPZONE50
  2
AecDbDispRepZonePlan50
  3
AecArchBase70|Product Desc: Autodesk Architectural Desktop 2007 |Company: Autodesk,Inc. |WEB Address: www.autodesk.com
 90
      129
 91
        0
280
     0
281
     0
  0
CLASS
  1
AEC_DISP_PROPS_WALL
  2
AecDbDispPropsWall
  3
AecArchBase70|Product Desc: Autodesk Architectural Desktop 2007 |Company: Autodesk,Inc. |WEB Address: www.autodesk.com
 90
      129
 91
        0
280
     0
281
     0
  0
CLASS
  1
AEC_LIST_DEF
  2
AecDbListDefinition
  3
AecBase70|Product Desc: Autodesk Architectural Desktop 2007 |Company: Autodesk,Inc. |WEB Address: www.autodesk.com
 90
      129
 91
        0
280
     0
281
     0
  0
CLASS
  1
AEC_LIST_DEF
  2
AecDbListItem
  3
AecBase70|Product Desc: Autodesk Architectural Desktop 2007 |Company: Autodesk,Inc. |WEB Address: www.autodesk.com
 90
      129
 91
        0
280
     0
281
     0
  0
CLASS
  1
AEC_AECDBSPACEMODIFIER
  2
AecDbSpaceModifier
  3
AecArchBase70|Product Desc: Autodesk Architectural Desktop 2007 |Company: Autodesk,Inc. |WEB Address: www.autodesk.com
 90
      129
 91
        0
280
     0
281
     0
  0
CLASS
  1
AEC_AECDBZONESTYLE
  2
AecDbZoneStyle
  3
AecArchBase70|Product Desc: Autodesk Architectural Desktop 2007 |Company: Autodesk,Inc. |WEB Address: www.autodesk.com
 90
      129
 91
        0
280
     0
281
     0
  0
CLASS
  1
AEC_AECDBZONEDEF
  2
AecDbZoneDef
  3
AecArchBase70|Product Desc: Autodesk Architectural Desktop 2007 |Company: Autodesk,Inc. |WEB Address: www.autodesk.com
 90
      129
 91
        0
280
     0
281
     0
  0
CLASS
  1
AEC_ZONE
  2
AecDbZone
  3
AecArchBase70|Product Desc: Autodesk Architectural Desktop 2007 |Company: Autodesk,Inc. |WEB Address: www.autodesk.com
 90
      893
 91
        0
280
     0
281
     1
  0
CLASS
  1
AEC_WALLMOD_STYLE
  2
AecDbWallModStyle
  3
AecArchBase70|Product Desc: Autodesk Architectural Desktop 2007 |Company: Autodesk,Inc. |WEB Address: www.autodesk.com
 90
      129
 91
        0
280
     0
281
     0
  0
CLASS
  1
AEC_DISPLAYTHEME_STYLE
  2
AecDbDisplayThemeStyle
  3
AecBase70|Product Desc: Autodesk Architectural Desktop 2007 |Company: Autodesk,Inc. |WEB Address: www.autodesk.com
 90
      129
 91
        0
280
     0
281
     0
  0
CLASS
  1
FIELD
  2
AcDbField
  3
ObjectDBX Classes
 90
     1152
 91
        0
280
     0
281
     0
  0
CLASS
  1
FIELDLIST
  2
AcDbFieldList
  3
ObjectDBX Classes
 90
     1152
 91
        1
280
     0
281
     0
  0
CLASS
  1
SCALE
  2
AcDbScale
  3
ObjectDBX Classes
 90
     1153
 91
       21
280
     0
281
     0
  0
CLASS
  1
MLEADERSTYLE
  2
AcDbMLeaderStyle
  3
ACDB_MLEADERSTYLE_CLASS
 90
     4095
 91
        0
280
     0
281
     0
  0
CLASS
  1
CELLSTYLEMAP
  2
AcDbCellStyleMap
  3
ObjectDBX Classes
 90
     1152
 91
        2
280
     0
281
     0
  0
CLASS
  1
AEC_REFEDIT_STATUS_TRACKER
  2
AecDbRefEditStatusTracker
  3
AecArchBase70|Product Desc: Autodesk Architectural Desktop 2007 |Company: Autodesk,Inc. |WEB Address: www.autodesk.com
 90
      129
 91
        0
280
     0
281
     0
  0
CLASS
  1
NPOCOLLECTION
  2
AcDbImpNonPersistentObjectsCollection
  3
ObjectDBX Classes
 90
     1153
 91
        0
280
     0
281
     0
  0
CLASS
  1
ACDB_ALDIMOBJECTCONTEXTDATA_CLASS
  2
AcDbAlignedDimensionObjectContextData
  3
ObjectDBX Classes
 90
     1153
 91
        0
280
     0
281
     0
  0
CLASS
  1
ACDB_DMDIMOBJECTCONTEXTDATA_CLASS
  2
AcDbDiametricDimensionObjectContextData
  3
ObjectDBX Classes
 90
     1153
 91
        0
280
     0
281
     0
  0
CLASS
  1
DIMASSOC
  2
AcDbDimAssoc
  3
"AcDbDimAssoc|Product Desc:     AcDim ARX App For Dimension|Company:          Autodesk, Inc.|WEB Address:      www.autodesk.com"
 90
        0
 91
        0
280
     0
281
     0
  0
CLASS
  1
ACDB_ANGDIMOBJECTCONTEXTDATA_CLASS
  2
AcDbAngularDimensionObjectContextData
  3
ObjectDBX Classes
 90
     1153
 91
        0
280
     0
281
     0
  0
CLASS
  1
ACDB_RADIMOBJECTCONTEXTDATA_CLASS
  2
AcDbRadialDimensionObjectContextData
  3
ObjectDBX Classes
 90
     1153
 91
        0
280
     0
281
     0
  0
CLASS
  1
ACDB_LEADEROBJECTCONTEXTDATA_CLASS
  2
AcDbLeaderObjectContextData
  3
ObjectDBX Classes
 90
     1153
 91
        0
280
     0
281
     0
  0
CLASS
  1
ACDB_MTEXTOBJECTCONTEXTDATA_CLASS
  2
AcDbMTextObjectContextData
  3
ObjectDBX Classes
 90
     1153
 91
        0
280
     0
281
     0
  0
CLASS
  1
SOLID_BACKGROUND
  2
AcDbSolidBackground
  3
SCENEOE
 90
     4095
 91
        0
280
     0
281
     0
  0
CLASS
  1
ACDB_TEXTOBJECTCONTEXTDATA_CLASS
  2
AcDbTextObjectContextData
  3
ObjectDBX Classes
 90
     1153
 91
        0
280
     0
281
     0
  0
CLASS
  1
MULTILEADER
  2
AcDbMLeader
  3
ACDB_MLEADER_CLASS
 90
     1025
 91
        0
280
     0
281
     1
  0
CLASS
  1
ACDB_MLEADEROBJECTCONTEXTDATA_CLASS
  2
AcDbMLeaderObjectContextData
  3
ObjectDBX Classes
 90
     1153
 91
        0
280
     0
281
     0
  0
CLASS
  1
AEC_RAILING
  2
AecDbRailing
  3
AecArchBase70|Product Desc: Autodesk Architectural Desktop 2007 |Company: Autodesk,Inc. |WEB Address: www.autodesk.com
 90
      893
 91
        0
280
     0
281
     1
  0
CLASS
  1
AEC_VARS_STRUCTUREBASE
  2
AecsDbVarsStructureBase
  3
AecArchBase70|Product Desc: Autodesk Architectural Desktop 2007 |Company: Autodesk,Inc. |WEB Address: www.autodesk.com
 90
      129
 91
        0
280
     0
281
     0
  0
CLASS
  1
AEC_DISPLAYTHEME
  2
AecDbDisplayTheme
  3
AecBase70|Product Desc: Autodesk Architectural Desktop 2007 |Company: Autodesk,Inc. |WEB Address: www.autodesk.com
 90
      893
 91
        0
280
     0
281
     1
  0
CLASS
  1
AECDACHDBREFURBISHSTYLE
  2
AecDACHDbRefurbishStyle
  3
AecRenovationDb|Product Desc: Autodesk Architectural Desktop 2012 |Company: Autodesk,Inc. |WEB Address: www.autodesk.com
 90
      895
 91
        0
280
     0
281
     0
  0
CLASS
  1
AECDACHDBREFURBISHLAYERSTYLE
  2
AecDACHDbRefurbishLayerStyle
  3
AecRenovationDb|Product Desc: Autodesk Architectural Desktop 2012 |Company: Autodesk,Inc. |WEB Address: www.autodesk.com
 90
      895
 91
        0
280
     0
281
     0
  0
CLASS
  1
AECDACHDBVARSRENOVATION
  2
AecDACHDbVarsRenovation
  3
AecRenovationDb|Product Desc: Autodesk Architectural Desktop 2012 |Company: Autodesk,Inc. |WEB Address: www.autodesk.com
 90
      895
 91
        0
280
     0
281
     0
  0
CLASS
  1
AECDACHDBVARS
  2
AecDACHDbVars
  3
AecDACHMigratorDb|Product Desc: Autodesk Architectural Desktop 2011 |Company: Autodesk,Inc. |WEB Address: www.autodesk.com
 90
      895
 91
        0
280
     0
281
     0
  0
CLASS
  1
ACDBSECTIONVIEWSTYLE
  2
AcDbSectionViewStyle
  3
ObjectDBX Classes
 90
     1025
 91
        0
280
     0
281
     0
  0
CLASS
  1
ACDBDETAILVIEWSTYLE
  2
AcDbDetailViewStyle
  3
ObjectDBX Classes
 90
     1025
 91
        0
280
     0
281
     0
  0
CLASS
  1
DBCOLOR
  2
AcDbColor
  3
ObjectDBX Classes
 90
        0
 91
        3
280
     0
281
     0
  0
CLASS
  1
ACDBASSOC2DCONSTRAINTGROUP
  2
AcDbAssoc2dConstraintGroup
  3
ObjectDBX Classes
 90
     1025
 91
        1
280
     0
281
     0
  0
CLASS
  1
ACDBASSOCGEOMDEPENDENCY
  2
AcDbAssocGeomDependency
  3
ObjectDBX Classes
 90
     1025
 91
        3
280
     0
281
     0
  0
CLASS
  1
ACDBASSOCNETWORK
  2
AcDbAssocNetwork
  3
ObjectDBX Classes
 90
     1025
 91
        2
280
     0
281
     0
  0
ENDSEC
  0
SECTION
  2
TABLES
  0
TABLE
  2
VPORT
  5
193
330
0
100
AcDbSymbolTable
 70
     1
  0
VPORT
  5
194
330
193
100
AcDbSymbolTableRecord
100
AcDbViewportTableRecord
  2
*Active
 70
     0
 10
0.0
 20
0.0
 11
1.0
 21
1.0
 12
23.20728541433202
 22
4.058459832532193
 13
0.0
 23
0.0
 14
10.0
 24
10.0
 15
10.0
 25
10.0
 16
0.0
 26
0.0
 36
1.0
 17
14.15663425620624
 27
13.80796575779871
 37
58.75172951440437
 40
88.84777026792511
 41
2.248815165876777
 42
50.0
 43
0.0
 44
0.0
 50
0.0
 51
0.0
 71
     0
 72
  1000
 73
     1
 74
     3
 75
     0
 76
     0
 77
     0
 78
     0
281
     0
 65
     1
110
0.0
120
0.0
130
0.0
111
1.0
121
0.0
131
0.0
112
0.0
122
1.0
132
0.0
 79
     0
146
0.0
348
182
 60
     3
 61
     5
292
     1
282
     1
141
0.0
142
0.0
 63
   250
421
  3355443
1001
ACAD_NAV_VCDISPLAY
1070
     3
  0
ENDTAB
  0
TABLE
  2
LTYPE
  5
18E
330
0
100
AcDbSymbolTable
 70
     3
  0
LTYPE
  5
18F
330
18E
100
AcDbSymbolTableRecord
100
AcDbLinetypeTableRecord
  2
ByBlock
 70
     0
  3

 72
    65
 73
     0
 40
0.0
  0
LTYPE
  5
190
330
18E
100
AcDbSymbolTableRecord
100
AcDbLinetypeTableRecord
  2
ByLayer
 70
     0
  3

 72
    65
 73
     0
 40
0.0
  0
LTYPE
  5
F
330
18E
100
AcDbSymbolTableRecord
100
AcDbLinetypeTableRecord
  2
Continuous
 70
     0
  3
Solid line
 72
    65
 73
     0
 40
0.0
  0
LTYPE
  5
124
330
18E
100
AcDbSymbolTableRecord
100
AcDbLinetypeTableRecord
  2
Verdeckt3
 70
     0
  3
Verdeckt3 __ __ __ __ __ __ __ __ __ __ __ __ _
 72
    65
 73
     2
 40
9.524999999999998
 49
6.349999999999999
 74
     0
 49
-3.174999999999999
 74
     0
  0
LTYPE
  5
58
330
18E
100
AcDbSymbolTableRecord
100
AcDbLinetypeTableRecord
  2
Verdeckt
 70
     0
  3
Verdeckt __ __ __ __ __ __ __ __ __ __ __ __ _
 72
    65
 73
     2
 40
9.524999999999998
 49
6.349999999999999
 74
     0
 49
-3.174999999999999
 74
     0
  0
ENDTAB
  0
TABLE
  2
LAYER
  5
187
102
{ACAD_XDICTIONARY
360
188
102
}
330
0
100
AcDbSymbolTable
 70
    16
  0
LAYER
  5
7
330
187
100
AcDbSymbolTableRecord
100
AcDbLayerTableRecord
  2
0
 70
     0
 62
     7
  6
Continuous
370
    -3
390
8
347
B
348
0
  0
LAYER
  5
55
102
{ACAD_XDICTIONARY
360
56
102
}
330
187
100
AcDbSymbolTableRecord
100
AcDbLayerTableRecord
  2
0_HILFE
 70
     0
 62
   154
420
    23210
  6
Verdeckt
370
    18
390
8
347
B
348
0
  0
LAYER
  5
FB
330
187
100
AcDbSymbolTableRecord
100
AcDbLayerTableRecord
  2
0_TEXT_num
 70
     0
 62
   250
  6
Continuous
370
     9
390
8
347
B
348
0
1001
AcCmTransparency
1071
        0
  0
LAYER
  5
F9
330
187
100
AcDbSymbolTableRecord
100
AcDbLayerTableRecord
  2
0_BEM_LIN
 70
     0
 62
   154
420
    23210
  6
Continuous
370
     9
390
8
347
B
348
0
1001
AcCmTransparency
1071
        0
  0
LAYER
  5
19
102
{ACAD_XDICTIONARY
360
1A
102
}
330
187
100
AcDbSymbolTableRecord
100
AcDbLayerTableRecord
  2
0_KONTUR
 70
     0
 62
   250
  6
Continuous
370
     9
390
8
347
B
348
0
1001
AcCmTransparency
1071
        0
  0
LAYER
  5
31
330
187
100
AcDbSymbolTableRecord
100
AcDbLayerTableRecord
  2
0_KREIS
 70
     0
 62
   154
420
    23210
  6
Continuous
370
    13
390
8
347
B
348
0
1001
AcCmTransparency
1071
        0
  0
LAYER
  5
11
330
187
100
AcDbSymbolTableRecord
100
AcDbLayerTableRecord
  2
0_FÜLLFL_hellgrün
 70
     0
 62
   254
420
 12248534
430
PANTONE f + h Cotton$PANTONE 12-5507 TCX
  6
Continuous
370
     5
390
8
347
B
348
0
1001
AcCmTransparency
1071
        0
  0
LAYER
  5
E7
330
187
100
AcDbSymbolTableRecord
100
AcDbLayerTableRecord
  2
0_TEXT
 70
     0
 62
   250
  6
Continuous
370
     9
390
8
347
B
348
0
1001
AcCmTransparency
1071
        0
  0
LAYER
  5
158
330
187
100
AcDbSymbolTableRecord
100
AcDbLayerTableRecord
  2
0_TEXT_weiß
 70
     0
 62
     7
420
 16777215
  6
Continuous
370
    -3
390
8
347
B
348
0
1001
AcCmTransparency
1071
        0
  0
LAYER
  5
1C
102
{ACAD_XDICTIONARY
360
1D
102
}
330
187
100
AcDbSymbolTableRecord
100
AcDbLayerTableRecord
  2
0_LOGO
 70
     0
 62
   154
420
    23210
  6
Continuous
370
    -3
390
8
347
B
348
0
  0
LAYER
  5
5E
330
187
100
AcDbSymbolTableRecord
100
AcDbLayerTableRecord
  2
0_HILFE_grün
 70
     0
 62
     3
  6
Continuous
370
    13
390
8
347
B
348
0
1001
AcCmTransparency
1071
        0
  0
LAYER
  5
21
330
187
100
AcDbSymbolTableRecord
100
AcDbLayerTableRecord
  2
0_FÜLL_blau
 70
     0
 62
   154
420
    23210
  6
Continuous
370
    -3
390
8
347
B
348
0
1001
AcCmTransparency
1071
        0
  0
LAYER
  5
36
330
187
100
AcDbSymbolTableRecord
100
AcDbLayerTableRecord
  2
0_FARBAN
 70
     0
 62
    17
420
 10236462
430
RAL CLASSIC$RAL 3013
  6
Continuous
370
    -3
390
8
347
B
348
0
1001
AcCmTransparency
1071
        0
  0
LAYER
  5
34
330
187
100
AcDbSymbolTableRecord
100
AcDbLayerTableRecord
  2
0_FÜLLFL_grau1
 70
     0
 62
     7
420
 15790320
  6
Continuous
370
    13
390
8
347
B
348
0
1001
AcCmTransparency
1071
        0
  0
LAYER
  5
FF
102
{ACAD_XDICTIONARY
360
100
102
}
330
187
100
AcDbSymbolTableRecord
100
AcDbLayerTableRecord
  2
0_MUS_poly
 70
     0
 62
   250
  6
Continuous
370
     9
390
102
347
B
348
0
  0
LAYER
  5
132
330
187
100
AcDbSymbolTableRecord
100
AcDbLayerTableRecord
  2
0_FÜLL_weiss
 70
     0
 62
     7
420
 16777215
  6
Continuous
370
    -3
390
8
347
B
348
0
1001
AcCmTransparency
1071
        0
  0
ENDTAB
  0
TABLE
  2
STYLE
  5
18C
330
0
100
AcDbSymbolTable
 70
     6
  0
STYLE
  5
15A
330
18C
100
AcDbSymbolTableRecord
100
AcDbTextStyleTableRecord
  2
Standard
 70
     0
 40
0.0
 41
1.0
 50
0.0
 71
     0
 42
0.25
  3
txt
  4

  0
STYLE
  5
1A2
330
18C
100
AcDbSymbolTableRecord
100
AcDbTextStyleTableRecord
  2
Romans
 70
     0
 40
0.0
 41
1.0
 50
0.0
 71
     0
 42
2.0
  3
Romans.shx
  4

1001
AcadAnnotative
1000
AnnotativeData
1002
{
1070
     1
1070
     0
1002
}
  0
STYLE
  5
1B5
330
18C
100
AcDbSymbolTableRecord
100
AcDbTextStyleTableRecord
  2
Arial 3.5 mm
 70
     0
 40
3.5
 41
1.0
 50
0.0
 71
     0
 42
0.25
  3
arial.ttf
  4

1001
AcadAnnotative
1000
AnnotativeData
1002
{
1070
     1
1070
     1
1002
}
1001
ACAD
1000
Arial
1071
       34
  0
STYLE
  5
1B1
330
18C
100
AcDbSymbolTableRecord
100
AcDbTextStyleTableRecord
  2
Romans 2.0 mm
 70
     0
 40
2.0
 41
1.0
 50
0.0
 71
     0
 42
2.0
  3
romans.shx
  4

1001
AcadAnnotative
1000
AnnotativeData
1002
{
1070
     1
1070
     1
1002
}
  0
STYLE
  5
E4
330
18C
100
AcDbSymbolTableRecord
100
AcDbTextStyleTableRecord
  2
Arial
 70
     0
 40
0.0
 41
1.0
 50
0.0
 71
     0
 42
2.0
  3
arial.ttf
  4

1001
AcadAnnotative
1000
AnnotativeData
1002
{
1070
     1
1070
     0
1002
}
1001
ACAD
1000
Arial
1071
       34
  0
STYLE
  5
199
330
18C
100
AcDbSymbolTableRecord
100
AcDbTextStyleTableRecord
  2
Bemassung
 70
     0
 40
0.0
 41
1.0
 50
0.0
 71
     0
 42
0.25
  3
isocp.shx
  4

  0
ENDTAB
  0
TABLE
  2
VIEW
  5
191
330
0
100
AcDbSymbolTable
 70
     0
  0
ENDTAB
  0
TABLE
  2
UCS
  5
192
330
0
100
AcDbSymbolTable
 70
     0
  0
ENDTAB
  0
TABLE
  2
APPID
  5
196
330
0
100
AcDbSymbolTable
 70
    10
  0
APPID
  5
17
330
196
100
AcDbSymbolTableRecord
100
AcDbRegAppTableRecord
  2
ACAD
 70
     0
  0
APPID
  5
17D
330
196
100
AcDbSymbolTableRecord
100
AcDbRegAppTableRecord
  2
ACAD_PSEXT
 70
     0
  0
APPID
  5
19F
330
196
100
AcDbSymbolTableRecord
100
AcDbRegAppTableRecord
  2
ACAD_DSTYLE_DIMJAG
 70
     0
  0
APPID
  5
19E
330
196
100
AcDbSymbolTableRecord
100
AcDbRegAppTableRecord
  2
ACAD_DSTYLE_DIMBREAK
 70
     0
  0
APPID
  5
E5
330
196
100
AcDbSymbolTableRecord
100
AcDbRegAppTableRecord
  2
AcadAnnotative
 70
     0
  0
APPID
  5
1A0
330
196
100
AcDbSymbolTableRecord
100
AcDbRegAppTableRecord
  2
ACAD_DSTYLE_DIMTALN
 70
     0
  0
APPID
  5
195
330
196
100
AcDbSymbolTableRecord
100
AcDbRegAppTableRecord
  2
ACAD_NAV_VCDISPLAY
 70
     0
  0
APPID
  5
15
330
196
100
AcDbSymbolTableRecord
100
AcDbRegAppTableRecord
  2
GradientColor1ACI
 70
     0
  0
APPID
  5
16
330
196
100
AcDbSymbolTableRecord
100
AcDbRegAppTableRecord
  2
GradientColor2ACI
 70
     0
  0
APPID
  5
12
330
196
100
AcDbSymbolTableRecord
100
AcDbRegAppTableRecord
  2
AcCmTransparency
 70
     0
  0
ENDTAB
  0
TABLE
  2
DIMSTYLE
  5
197
330
0
100
AcDbSymbolTable
 70
     2
100
AcDbDimStyleTable
 71
     2
340
198
340
1A1
  0
DIMSTYLE
105
1A1
330
197
100
AcDbSymbolTableRecord
100
AcDbDimStyleTableRecord
  2
Treppen
 70
     0
 41
0.1
 42
0.0
 43
0.5
 44
0.125
 46
0.125
 73
     0
 74
     0
 77
     1
 78
    12
140
0.2
141
0.25
147
0.1
179
     1
279
     2
340
1A2
342
1A3
  0
DIMSTYLE
105
198
330
197
100
AcDbSymbolTableRecord
100
AcDbDimStyleTableRecord
  2
Bem 2.0 mm
 70
     0
 40
0.0
 41
1.5
 42
0.0
 43
5.0
 44
1.25
 45
0.005
 46
1.25
 49
10.0
 73
     0
 74
     0
 77
     1
 78
    12
140
2.0
141
0.25
147
1.0
172
     1
174
     1
179
     2
271
     3
272
     3
279
     2
290
     1
340
199
342
19A
1001
ACAD_DSTYLE_DIMBREAK
1070
   391
1040
3.75
1001
AcadAnnotative
1000
AnnotativeData
1002
{
1070
     1
1070
     1
1002
}
1001
ACAD_DSTYLE_DIMJAG
1070
   388
1040
1.5
1001
ACAD_DSTYLE_DIMTALN
1070
   392
1070
     0
  0
ENDTAB
  0
TABLE
  2
BLOCK_RECORD
  5
1
330
0
100
AcDbSymbolTable
 70
     4
  0
BLOCK_RECORD
  5
2
102
{ACAD_XDICTIONARY
360
3
102
}
330
1
100
AcDbSymbolTableRecord
100
AcDbBlockTableRecord
  2
*Model_Space
340
17A
 70
     0
280
     1
281
     0
  0
BLOCK_RECORD
  5
17E
330
1
100
AcDbSymbolTableRecord
100
AcDbBlockTableRecord
  2
*Paper_Space
340
185
 70
     0
280
     1
281
     0
  0
BLOCK_RECORD
  5
19A
330
1
100
AcDbSymbolTableRecord
100
AcDbBlockTableRecord
  2
_ArchTick
340
0
310
2800000020000000200000000100080000000000000400000000000000000000000000000000000000000000000080000080000000808000800000008000800080800000C0C0C000C0DCC000F0CAA6000020400000206000002080000020A0000020C0000020E00000400000004020000040400000406000004080000040A0
310
000040C0000040E00000600000006020000060400000606000006080000060A0000060C0000060E00000800000008020000080400000806000008080000080A0000080C0000080E00000A0000000A0200000A0400000A0600000A0800000A0A00000A0C00000A0E00000C0000000C0200000C0400000C0600000C0800000C0
310
A00000C0C00000C0E00000E0000000E0200000E0400000E0600000E0800000E0A00000E0C00000E0E00040000000400020004000400040006000400080004000A0004000C0004000E00040200000402020004020400040206000402080004020A0004020C0004020E000404000004040200040404000404060004040800040
310
40A0004040C0004040E00040600000406020004060400040606000406080004060A0004060C0004060E00040800000408020004080400040806000408080004080A0004080C0004080E00040A0000040A0200040A0400040A0600040A0800040A0A00040A0C00040A0E00040C0000040C0200040C0400040C0600040C08000
310
40C0A00040C0C00040C0E00040E0000040E0200040E0400040E0600040E0800040E0A00040E0C00040E0E00080000000800020008000400080006000800080008000A0008000C0008000E00080200000802020008020400080206000802080008020A0008020C0008020E00080400000804020008040400080406000804080
310
008040A0008040C0008040E00080600000806020008060400080606000806080008060A0008060C0008060E00080800000808020008080400080806000808080008080A0008080C0008080E00080A0000080A0200080A0400080A0600080A0800080A0A00080A0C00080A0E00080C0000080C0200080C0400080C0600080C0
310
800080C0A00080C0C00080C0E00080E0000080E0200080E0400080E0600080E0800080E0A00080E0C00080E0E000C0000000C0002000C0004000C0006000C0008000C000A000C000C000C000E000C0200000C0202000C0204000C0206000C0208000C020A000C020C000C020E000C0400000C0402000C0404000C0406000C0
310
408000C040A000C040C000C040E000C0600000C0602000C0604000C0606000C0608000C060A000C060C000C060E000C0800000C0802000C0804000C0806000C0808000C080A000C080C000C080E000C0A00000C0A02000C0A04000C0A06000C0A08000C0A0A000C0A0C000C0A0E000C0C00000C0C02000C0C04000C0C06000
310
C0C08000C0C0A000F0FBFF00A4A0A000808080000000FF0000FF000000FFFF00FF000000FF00FF00FFFF0000FFFFFF00FFFFFF00FFFFFFFFFFFFFFFFFFFFFFFFFFFFFFFFFFFFFFFFFFFFFFFFFFFFFFFFFFFF00FF00FFFFFFFFFFFFFFFFFFFFFFFFFFFFFFFFFFFFFFFFFFFFFFFFFFFFFFFF00FFFFFF00FFFFFFFFFFFFFFFFFF
310
FFFFFFFFFFFFFFFFFFFFFFFFFFFFFFFFFF00FFFFFFFFFF00FFFFFFFFFFFFFFFFFFFFFFFFFFFFFFFFFFFFFFFFFFFFFFFFFFFF00FFFFFFFFFF00FFFFFFFFFFFFFFFFFFFFFFFFFFFFFFFFFFFFFFFFFFFFFFFFFFFF00FFFFFFFFFF00FFFFFFFFFFFFFFFFFFFFFFFFFFFFFFFFFFFFFFFFFFFFFFFFFFFF00FFFFFFFFFF00FFFFFFFF
310
FFFFFFFFFFFFFFFFFFFFFFFFFFFFFFFFFFFFFFFFFFFF00FFFFFFFFFF00FFFFFFFFFFFFFFFFFFFFFFFFFFFFFFFFFFFFFFFFFFFFFFFFFFFF00FFFFFFFFFF00FFFFFFFFFFFFFFFFFFFFFFFFFFFFFFFFFFFFFFFFFFFFFFFFFFFF00FFFFFFFFFF00FFFFFFFFFFFFFFFFFFFFFFFFFFFFFFFFFFFFFFFFFFFFFFFFFFFF00FFFFFFFFFF
310
00FFFFFFFFFFFFFFFFFFFFFFFFFFFFFFFFFFFFFFFFFFFFFFFFFFFF00FFFFFFFFFF00FFFFFFFFFFFFFFFFFFFFFFFFFFFFFFFFFFFFFFFFFFFFFFFFFFFF00FFFFFFFFFF00FFFFFFFFFFFFFFFFFFFFFFFFFFFFFFFFFFFFFFFFFFFFFFFFFFFF00FFFFFFFFFF00FFFFFFFFFFFFFFFFFFFFFFFFFFFFFFFFFFFFFFFFFFFFFFFFFFFF00
310
FFFFFFFFFF00FFFFFFFFFFFFFFFFFFFFFFFFFFFFFFFFFFFFFFFFFFFFFFFFFFFF00FFFFFFFFFF00FFFFFFFFFFFFFFFFFFFFFFFFFFFFFFFFFFFFFFFFFFFFFFFFFFFF00FFFFFFFFFF00FFFFFFFFFFFFFFFFFFFFFFFFFFFFFFFFFFFFFFFFFFFFFFFFFFFF00FFFFFFFFFF00FFFFFFFFFFFFFFFFFFFFFFFFFFFFFFFFFFFFFFFFFFFF
310
FFFFFFFF00FFFFFFFFFF00FFFFFFFFFFFFFFFFFFFFFFFFFFFFFFFFFFFFFFFFFFFFFFFFFFFF00FFFFFFFFFF00FFFFFFFFFFFFFFFFFFFFFFFFFFFFFFFFFFFFFFFFFFFFFFFFFFFF00FFFFFFFFFF00FFFFFFFFFFFFFFFFFFFFFFFFFFFFFFFFFFFFFFFFFFFFFFFFFFFF00FFFFFFFFFF00FFFFFFFFFFFFFFFFFFFFFFFFFFFFFFFFFF
310
FFFFFFFFFFFFFFFFFF00FFFFFFFFFF00FFFFFFFFFFFFFFFFFFFFFFFFFFFFFFFFFFFFFFFFFFFFFFFFFFFF00FFFFFFFFFF00FFFFFFFFFFFFFFFFFFFFFFFFFFFFFFFFFFFFFFFFFFFFFFFFFFFF00FFFFFFFFFF00FFFFFFFFFFFFFFFFFFFFFFFFFFFFFFFFFFFFFFFFFFFFFFFFFFFF00FFFFFFFFFF00FFFFFFFFFFFFFFFFFFFFFFFF
310
FFFFFFFFFFFFFFFFFFFFFFFFFFFF00FFFFFFFFFF00FFFFFFFFFFFFFFFFFFFFFFFFFFFFFFFFFFFFFFFFFFFFFFFFFFFF00FFFFFFFFFF00FFFFFFFFFFFFFFFFFFFFFFFFFFFFFFFFFFFFFFFFFFFFFFFFFFFF00FFFFFFFFFF00FFFFFFFFFFFFFFFFFFFFFFFFFFFFFFFFFFFFFFFFFFFFFFFFFFFF00FFFFFF00FFFFFFFFFFFFFFFFFF
310
FFFFFFFFFFFFFFFFFFFFFFFFFFFFFFFFFFFFFF00FF00FFFFFFFFFFFFFFFFFFFFFFFFFFFFFFFFFFFFFFFFFFFFFFFFFFFFFFFFFFFF00FFFFFF
 70
     0
280
     1
281
     0
  0
BLOCK_RECORD
  5
1A3
330
1
100
AcDbSymbolTableRecord
100
AcDbBlockTableRecord
  2
_Origin
340
0
310
2800000020000000200000000100080000000000000400000000000000000000000000000000000000000000000080000080000000808000800000008000800080800000C0C0C000C0DCC000F0CAA6000020400000206000002080000020A0000020C0000020E00000400000004020000040400000406000004080000040A0
310
000040C0000040E00000600000006020000060400000606000006080000060A0000060C0000060E00000800000008020000080400000806000008080000080A0000080C0000080E00000A0000000A0200000A0400000A0600000A0800000A0A00000A0C00000A0E00000C0000000C0200000C0400000C0600000C0800000C0
310
A00000C0C00000C0E00000E0000000E0200000E0400000E0600000E0800000E0A00000E0C00000E0E00040000000400020004000400040006000400080004000A0004000C0004000E00040200000402020004020400040206000402080004020A0004020C0004020E000404000004040200040404000404060004040800040
310
40A0004040C0004040E00040600000406020004060400040606000406080004060A0004060C0004060E00040800000408020004080400040806000408080004080A0004080C0004080E00040A0000040A0200040A0400040A0600040A0800040A0A00040A0C00040A0E00040C0000040C0200040C0400040C0600040C08000
310
40C0A00040C0C00040C0E00040E0000040E0200040E0400040E0600040E0800040E0A00040E0C00040E0E00080000000800020008000400080006000800080008000A0008000C0008000E00080200000802020008020400080206000802080008020A0008020C0008020E00080400000804020008040400080406000804080
310
008040A0008040C0008040E00080600000806020008060400080606000806080008060A0008060C0008060E00080800000808020008080400080806000808080008080A0008080C0008080E00080A0000080A0200080A0400080A0600080A0800080A0A00080A0C00080A0E00080C0000080C0200080C0400080C0600080C0
310
800080C0A00080C0C00080C0E00080E0000080E0200080E0400080E0600080E0800080E0A00080E0C00080E0E000C0000000C0002000C0004000C0006000C0008000C000A000C000C000C000E000C0200000C0202000C0204000C0206000C0208000C020A000C020C000C020E000C0400000C0402000C0404000C0406000C0
310
408000C040A000C040C000C040E000C0600000C0602000C0604000C0606000C0608000C060A000C060C000C060E000C0800000C0802000C0804000C0806000C0808000C080A000C080C000C080E000C0A00000C0A02000C0A04000C0A06000C0A08000C0A0A000C0A0C000C0A0E000C0C00000C0C02000C0C04000C0C06000
310
C0C08000C0C0A000F0FBFF00A4A0A000808080000000FF0000FF000000FFFF00FF000000FF00FF00FFFF0000FFFFFF00FFFFFFFFFFFFFFFFFFFFFFFFFFFFFFFFFFFFFFFFFFFFFFFFFFFFFFFFFFFFFFFFFFFFFFFFFFFFFFFFFFFFFFFFFFFFFFFFFFFFFFFFFFFFFFFFFFFFFFFFFFFFFFFFFFFFFFFFFFFFFFFFFFFFFFFFFFFFFF
310
FFFFFFFFFFFFFFFFFFFFFFFFFFFFFFFFFFFFFFFFFFFFFFFFFFFFFFFFFFFFFFFFFFFFFFFFFFFFFFFFFFFFFFFFFFFFFFFFFFFFFFFFFFFFFFFFFFFFFFFFFFFFFFFFFFFFFFFFFFFFFFFFFFFFFFFFFFFFFFFFFFFFFFFFFFFFFFFFFFFFFFFFFFFFFFFFFFFFFFFFFFFFFFFFFFFFFFFFFFFFFFFFFFFFFFFFFFFFFFFFFFFFFFFFFFFFFF
310
FFFFFFFFFF00000000FFFFFFFFFFFFFFFFFFFFFFFFFFFFFFFFFFFFFFFFFFFFFFFF00000000FFFFFFFF0000FFFFFFFFFFFFFFFFFFFFFFFFFFFFFFFFFFFFFFFFFF00FFFFFFFFFFFFFFFFFFFF0000FFFFFFFFFFFFFFFFFFFFFFFFFFFFFFFFFFFF00FFFFFFFFFFFFFFFFFFFFFFFFFF00FFFFFFFFFFFFFFFFFFFFFFFFFFFFFFFFFF
310
00FFFFFFFFFFFFFFFFFFFFFFFFFF00FFFFFFFFFFFFFFFFFFFFFFFFFFFFFFFF00FFFFFFFFFFFFFFFFFFFFFFFFFFFFFF00FFFFFFFFFFFFFFFFFFFFFFFFFFFF00FFFFFFFFFFFFFFFFFFFFFFFFFFFFFFFF00FFFFFFFFFFFFFFFFFFFFFFFFFFFF00FFFFFFFFFFFFFFFFFFFFFFFFFFFFFFFFFF00FFFFFFFFFFFFFFFFFFFFFFFFFF00
310
FFFFFFFFFFFFFFFFFFFFFFFFFFFFFFFFFF00FFFFFFFFFFFFFFFFFFFFFFFFFF00FFFFFFFFFFFFFFFFFFFFFFFFFFFFFFFFFFFF00FFFF0000000000000000000000000000000000000000FFFFFFFFFFFFFFFFFF00FFFFFFFFFFFFFFFFFFFFFFFF00FFFFFFFFFFFFFFFFFFFFFFFFFFFFFFFFFFFF00FFFFFFFFFFFFFFFFFFFFFFFF
310
00FFFFFFFFFFFFFFFFFFFFFFFFFFFFFFFFFF00FFFFFFFFFFFFFFFFFFFFFFFFFF00FFFFFFFFFFFFFFFFFFFFFFFFFFFFFFFFFF00FFFFFFFFFFFFFFFFFFFFFFFFFFFF00FFFFFFFFFFFFFFFFFFFFFFFFFFFFFF00FFFFFFFFFFFFFFFFFFFFFFFFFFFFFFFF00FFFFFFFFFFFFFFFFFFFFFFFFFFFF00FFFFFFFFFFFFFFFFFFFFFFFFFF
310
FFFFFF00FFFFFFFFFFFFFFFFFFFFFFFFFF00FFFFFFFFFFFFFFFFFFFFFFFFFFFFFFFFFFFF00FFFFFFFFFFFFFFFFFFFF0000FFFFFFFFFFFFFFFFFFFFFFFFFFFFFFFFFFFFFFFF00000000FFFFFFFF0000FFFFFFFFFFFFFFFFFFFFFFFFFFFFFFFFFFFFFFFFFFFFFFFFFFFF00000000FFFFFFFFFFFFFFFFFFFFFFFFFFFFFFFFFFFF
310
FFFFFFFFFFFFFFFFFFFFFFFFFFFFFFFFFFFFFFFFFFFFFFFFFFFFFFFFFFFFFFFFFFFFFFFFFFFFFFFFFFFFFFFFFFFFFFFFFFFFFFFFFFFFFFFFFFFFFFFFFFFFFFFFFFFFFFFFFFFFFFFFFFFFFFFFFFFFFFFFFFFFFFFFFFFFFFFFFFFFFFFFFFFFFFFFFFFFFFFFFFFFFFFFFFFFFFFFFFFFFFFFFFFFFFFFFFFFFFFFFFFFFFFFFFFFFF
310
FFFFFFFFFFFFFFFFFFFFFFFFFFFFFFFFFFFFFFFFFFFFFFFFFFFFFFFFFFFFFFFFFFFFFFFFFFFFFFFFFFFFFFFFFFFFFFFFFFFFFFFFFFFFFFFF
 70
     0
280
     1
281
     0
  0
BLOCK_RECORD
  5
12F
330
1
100
AcDbSymbolTableRecord
100
AcDbBlockTableRecord
  2
dübel
340
0
310
2800000020000000200000000100080000000000000400000000000000000000000000000000000000000000000080000080000000808000800000008000800080800000C0C0C000C0DCC000F0CAA6000020400000206000002080000020A0000020C0000020E00000400000004020000040400000406000004080000040A0
310
000040C0000040E00000600000006020000060400000606000006080000060A0000060C0000060E00000800000008020000080400000806000008080000080A0000080C0000080E00000A0000000A0200000A0400000A0600000A0800000A0A00000A0C00000A0E00000C0000000C0200000C0400000C0600000C0800000C0
310
A00000C0C00000C0E00000E0000000E0200000E0400000E0600000E0800000E0A00000E0C00000E0E00040000000400020004000400040006000400080004000A0004000C0004000E00040200000402020004020400040206000402080004020A0004020C0004020E000404000004040200040404000404060004040800040
310
40A0004040C0004040E00040600000406020004060400040606000406080004060A0004060C0004060E00040800000408020004080400040806000408080004080A0004080C0004080E00040A0000040A0200040A0400040A0600040A0800040A0A00040A0C00040A0E00040C0000040C0200040C0400040C0600040C08000
310
40C0A00040C0C00040C0E00040E0000040E0200040E0400040E0600040E0800040E0A00040E0C00040E0E00080000000800020008000400080006000800080008000A0008000C0008000E00080200000802020008020400080206000802080008020A0008020C0008020E00080400000804020008040400080406000804080
310
008040A0008040C0008040E00080600000806020008060400080606000806080008060A0008060C0008060E00080800000808020008080400080806000808080008080A0008080C0008080E00080A0000080A0200080A0400080A0600080A0800080A0A00080A0C00080A0E00080C0000080C0200080C0400080C0600080C0
310
800080C0A00080C0C00080C0E00080E0000080E0200080E0400080E0600080E0800080E0A00080E0C00080E0E000C0000000C0002000C0004000C0006000C0008000C000A000C000C000C000E000C0200000C0202000C0204000C0206000C0208000C020A000C020C000C020E000C0400000C0402000C0404000C0406000C0
310
408000C040A000C040C000C040E000C0600000C0602000C0604000C0606000C0608000C060A000C060C000C060E000C0800000C0802000C0804000C0806000C0808000C080A000C080C000C080E000C0A00000C0A02000C0A04000C0A06000C0A08000C0A0A000C0A0C000C0A0E000C0C00000C0C02000C0C04000C0C06000
310
C0C08000C0C0A000F0FBFF00A4A0A000808080000000FF0000FF000000FFFF00FF000000FF00FF00FFFF0000FFFFFF00FFFFFFFFFFFFFFFFFFFFFFFFFFFFFFFFFFFFFFFFFFFFFFFFFFFFFFFFFFFFFFFFFFFFFFFFFFFFFFFFFFFFFFFFFFFFFFFFFFFFFFFFFFFFFFFFFFFFFFFFFFFFFFFFFFFFFFFFFFFFFFFFFFFFFFFFFFFFFF
310
FFFFFFFFFFFFFFFFFFFFFFFFFFFFFFFFFFFFFFFFFFFFFFFFFFFFFFFFFFFFFFFFFFFFFFFFFFFFFFFFFFFFFFFFFFFFFFFFFFFFFFFFFFFFFFFFFFFFFFFFFFFFFFFFFFFFFFFFFFFFFFFFFFFFFFFFFFFFFFFFFFFFFFFFFFFFFFFFFFFFFFFFFFFFFFFFFFFFFFFFFFFFFFFFFFFFFFFFFFFFFFFFFFFFFFFFFFFFFFFFFFFFFFFFFFFFFF
310
FFFFFFFFFFFFFFFFFFFFFFFFFFFFFFFFFFFFFFFFFFFFFFFFFFFFFFFFFFFFFFFFFFFFFFFFFFFFFFFFFFFFFFFFFFFFFFFFFFFFFFFFFFFFFFFFFFFFFFFFFFFFFFFFFFFFFFFFFFFFFFFFFFFFFFFFFFFFFFFFFFFFFFFFFFFFFFFFFFFFFFFFFFFFFFFFFFFFFFFFFFFFFFFFFFFFFFFFFFFFFFFFFFFFFFFFFFFFFFFFFFFFFFFFFFFFFF
310
FFFFFFFFFFFFFFFFFFFFFFFFFFFFFFFFFFFFFFFFFFFFFFFFFFFFFFFFFFFFFFFFFFFFFFFFFFFFFFFFFFFFFFFFFFFFFFFFFFFFFFFFFFFFFFFFFFFFFFFFFFFFFFFFFFFFFFFFFFFFFFFFFFFFFFFFFFFFFFFFFFFFFFFFFFFFFFFFFFFFFFFFFFFFFFFFFFFFFFFFFFFFFFFFFFFFFFFFFFFFFFFFFFFFFFFFFFFFFFFFFFFFFFFFFFFFFF
310
FFFFFFFFFFFFFFFFFFFFFFFFFFFFFFFFFF0000FFFFFF0000000000000000000000000000000000000000000000000000000000FFFF000000000000000000000000000000000000000000000000000000000000FFFFFFFFFFFFFFFFFFFFFFFFFFFFFFFFFFFFFFFFFFFFFFFFFFFFFFFFFFFF0000FFFFFFFFFFFFFFFFFFFFFFFF
310
FFFFFFFFFFFFFFFFFFFFFFFFFFFFFFFFFFFFFFFFFFFFFFFFFFFFFFFFFFFFFFFFFFFFFFFFFFFFFFFFFFFFFFFFFFFFFFFFFFFFFFFFFFFFFFFFFFFFFFFFFFFFFFFFFFFFFFFFFFFFFFFFFFFFFFFFFFFFFFFFFFFFFFFFFFFFFFFFFFFFFFFFFFFFFFFFFFFFFFFFFFFFFFFFFFFFFFFFFFFFFFFFFFFFFFFFFFFFFFFFFFFFFFFFFFFFFF
310
FFFFFFFFFFFFFFFFFFFFFFFFFFFFFFFFFFFFFFFFFFFFFFFFFFFFFFFFFFFFFFFFFFFFFFFFFFFFFFFFFFFFFFFFFFFFFFFFFFFFFFFFFFFFFFFFFFFFFFFFFFFFFFFFFFFFFFFFFFFFFFFFFFFFFFFFFFFFFFFFFFFFFFFFFFFFFFFFFFFFFFFFFFFFFFFFFFFFFFFFFFFFFFFFFFFFFFFFFFFFFFFFFFFFFFFFFFFFFFFFFFFFFFFFFFFFFF
310
FFFFFFFFFFFFFFFFFFFFFFFFFFFFFFFFFFFFFFFFFFFFFFFFFFFFFFFFFFFFFFFFFFFFFFFFFFFFFFFFFFFFFFFFFFFFFFFFFFFFFFFFFFFFFFFFFFFFFFFFFFFFFFFFFFFFFFFFFFFFFFFFFFFFFFFFFFFFFFFFFFFFFFFFFFFFFFFFFFFFFFFFFFFFFFFFFFFFFFFFFFFFFFFFFFFFFFFFFFFFFFFFFFFFFFFFFFFFFFFFFFFFFFFFFFFFFF
310
FFFFFFFFFFFFFFFFFFFFFFFFFFFFFFFFFFFFFFFFFFFFFFFFFFFFFFFFFFFFFFFFFFFFFFFFFFFFFFFFFFFFFFFFFFFFFFFFFFFFFFFFFFFFFFFF
102
{BLKREFS
331
12E
331
137
331
155
331
156
102
}
 70
     6
280
     1
281
     0
  0
ENDTAB
  0
ENDSEC
  0
SECTION
  2
BLOCKS
  0
BLOCK
  5
6
330
2
100
AcDbEntity
  8
0
100
AcDbBlockBegin
  2
*Model_Space
 70
     0
 10
0.0
 20
0.0
 30
0.0
  3
*Model_Space
  1

  0
ENDBLK
  5
179
330
2
100
AcDbEntity
  8
0
100
AcDbBlockEnd
  0
BLOCK
  5
17F
330
17E
100
AcDbEntity
 67
     1
  8
0
100
AcDbBlockBegin
  2
*Paper_Space
 70
     0
 10
0.0
 20
0.0
 30
0.0
  3
*Paper_Space
  1

  0
ENDBLK
  5
184
330
17E
100
AcDbEntity
 67
     1
  8
0
100
AcDbBlockEnd
  0
BLOCK
  5
19B
330
19A
100
AcDbEntity
  8
0
100
AcDbBlockBegin
  2
_ArchTick
 70
     0
 10
0.0
 20
0.0
 30
0.0
  3
_ArchTick
  1

  0
LWPOLYLINE
  5
19C
330
19A
100
AcDbEntity
  8
0
  6
ByBlock
 62
     0
100
AcDbPolyline
 90
        2
 70
     0
 43
0.15
 10
-0.5
 20
-0.5
 10
0.5
 20
0.5
  0
ENDBLK
  5
19D
330
19A
100
AcDbEntity
  8
0
100
AcDbBlockEnd
  0
BLOCK
  5
1A4
330
1A3
100
AcDbEntity
  8
0
100
AcDbBlockBegin
  2
_Origin
 70
     0
 10
0.0
 20
0.0
 30
0.0
  3
_Origin
  1

  0
CIRCLE
  5
1A5
330
1A3
100
AcDbEntity
  8
0
  6
ByBlock
 62
     0
370
    -2
100
AcDbCircle
 10
0.0
 20
0.0
 30
0.0
 40
0.5
  0
LINE
  5
1A6
330
1A3
100
AcDbEntity
  8
0
  6
ByBlock
 62
     0
370
    -2
100
AcDbLine
 10
0.0
 20
0.0
 30
0.0
 11
-1.0
 21
0.0
 31
0.0
  0
ENDBLK
  5
1A7
330
1A3
100
AcDbEntity
  8
0
100
AcDbBlockEnd
  0
BLOCK
  5
130
330
12F
100
AcDbEntity
  8
0
100
AcDbBlockBegin
  2
dübel
 70
     0
 10
0.0
 20
0.0
 30
0.0
  3
dübel
  1

  0
HATCH
  5
131
330
12F
100
AcDbEntity
  8
0_FÜLL_weiss
100
AcDbHatch
 10
0.0
 20
0.0
 30
0.0
210
0.0
220
0.0
230
1.0
  2
SOLID
 70
     1
 71
     0
 91
        1
 92
        7
 72
     0
 73
     1
 93
        4
 10
566.7960650657938
 20
-801.5020114819494
 10
566.0550948365763
 20
-801.5020114819494
 10
566.0550948365763
 20
-804.6658923988193
 10
566.7960650657938
 20
-804.6658923988193
 97
        0
 75
     1
 76
     1
 47
0.1045123002025488
 98
        2
 10
556.428534648752
 20
-802.8965891301758
 10
566.2544293953776
 20
-802.9153993276386
450
        0
451
        0
460
0.0
461
0.0
452
        0
462
1.0
453
        2
463
0.0
 63
     5
421
      255
463
1.0
 63
     2
421
 16776960
470
LINEAR
1001
GradientColor1ACI
1070
     5
1001
GradientColor2ACI
1070
     2
1001
ACAD
1010
0.0
1020
0.0
1030
0.0
  0
HATCH
  5
133
330
12F
100
AcDbEntity
  8
0_FÜLL_weiss
100
AcDbHatch
 10
0.0
 20
0.0
 30
0.0
210
0.0
220
0.0
230
1.0
  2
SOLID
 70
     1
 71
     0
 91
        1
 92
        1
 93
        5
 72
     1
 10
566.0550948365763
 20
-802.7233051209059
 11
540.7967878048318
 21
-802.7233051209059
 72
     1
 10
540.7967878048318
 20
-802.7233051209059
 11
540.0754941658749
 21
-803.0839519403842
 72
     1
 10
540.0754941658749
 20
-803.0839519403842
 11
540.7967878048318
 21
-803.4445987598624
 72
     1
 10
540.7967878048318
 20
-803.4445987598624
 11
566.0550948365763
 21
-803.4445987598626
 72
     1
 10
566.0550948365763
 20
-803.4445987598626
 11
566.0550948365763
 21
-802.7233051209059
 97
        0
 75
     1
 76
     1
 98
        2
 10
556.4285346487521
 20
-802.9198152635434
 10
566.2544293953778
 20
-802.9386254610061
450
        0
451
        0
460
0.0
461
0.0
452
        0
462
1.0
453
        2
463
0.0
 63
     5
421
      255
463
1.0
 63
     2
421
 16776960
470
LINEAR
1001
GradientColor1ACI
1070
     5
1001
GradientColor2ACI
1070
     2
1001
ACAD
1010
0.0
1020
0.0
1030
0.0
  0
LWPOLYLINE
  5
134
330
12F
100
AcDbEntity
  8
0_KONTUR
100
AcDbPolyline
 90
        4
 70
     1
 43
0.0
 10
566.0550948365763
 20
-804.6658923988193
 10
566.7960650657938
 20
-804.6658923988193
 10
566.7960650657938
 20
-801.5020114819494
 10
566.0550948365763
 20
-801.5020114819494
  0
LWPOLYLINE
  5
135
330
12F
100
AcDbEntity
  8
0_KONTUR
100
AcDbPolyline
 90
        5
 70
     0
 43
0.0
 10
566.0550948365763
 20
-803.4445987598626
 10
540.7967878048316
 20
-803.4445987598624
 10
540.0754941658749
 20
-803.0839519403842
 10
540.7967878048316
 20
-802.7233051209059
 10
566.0550948365763
 20
-802.7233051209059
  0
ENDBLK
  5
136
330
12F
100
AcDbEntity
  8
0
100
AcDbBlockEnd
  0
ENDSEC
  0
SECTION
  2
ENTITIES
  0
HATCH
  5
10
330
2
100
AcDbEntity
  8
0_FÜLLFL_hellgrün
 62
   254
420
 12248534
430
PANTONE f + h Cotton$PANTONE 12-5507 TCX
440
 33554687
 48
2.0
370
    13
100
AcDbHatch
 10
0.0
 20
0.0
 30
0.0
210
0.0
220
0.0
230
1.0
  2
SOLID
 70
     1
 71
     0
 91
        1
 92
        1
 93
        4
 72
     1
 10
67.61770990693911
 20
-70.43515488973783
 11
67.61770990693911
 21
-193.5906735395427
 72
     1
 10
67.61770990693911
 20
-193.5906735395427
 11
118.0128556965286
 21
-193.5906735395427
 72
     1
 10
118.0128556965286
 20
-193.5906735395427
 11
118.0177099069391
 21
-70.4351548897381
 72
     1
 10
118.0177099069391
 20
-70.43515488973806
 11
67.61770990693911
 21
-70.43515488973783
 97
        0
 75
     1
 76
     1
 98
        1
 10
68.58925666093124
 20
-18.91168213264161
450
        0
451
        0
460
0.0
461
0.0
452
        0
462
1.0
453
        2
463
0.0
 63
     5
421
      255
463
1.0
 63
     2
421
 16776960
470
LINEAR
1001
GradientColor1ACI
1070
     5
1001
GradientColor2ACI
1070
     2
1001
ACAD
1010
0.0
1020
0.0
1030
0.0
  0
HATCH
  5
18
330
2
100
AcDbEntity
  8
0_KONTUR
 62
   254
420
 15724739
100
AcDbHatch
 10
0.0
 20
0.0
 30
0.0
210
0.0
220
0.0
230
1.0
  2
SOLID
 70
     1
 71
     0
 91
        1
 92
        1
 93
        4
 72
     1
 10
137.9712697291804
 20
-22.43515488973783
 11
127.0177099069392
 21
-22.43515488973783
 72
     1
 10
127.0177099069391
 20
-22.43515488973783
 11
127.0177099069391
 21
-193.5906735395427
 72
     1
 10
127.0177099069391
 20
-193.5906735395427
 11
137.9712697291803
 21
-193.5906735395423
 72
     1
 10
137.9712697291803
 20
-193.5906735395427
 11
137.9712697291804
 21
-22.4351548897381
 97
        0
 75
     1
 76
     1
 98
        1
 10
137.0219936250361
 20
-64.04953711705146
450
        0
451
        0
460
0.0
461
0.0
452
        0
462
1.0
453
        2
463
0.0
 63
     5
421
      255
463
1.0
 63
     2
421
 16776960
470
LINEAR
1001
GradientColor1ACI
1070
     5
1001
GradientColor2ACI
1070
     2
1001
ACAD
1010
0.0
1020
0.0
1030
0.0
  0
HATCH
  5
1B
330
2
100
AcDbEntity
  8
0_LOGO
100
AcDbHatch
 10
0.0
 20
0.0
 30
0.0
210
0.0
220
0.0
230
1.0
  2
SOLID
 70
     1
 71
     0
 91
        1
 92
        7
 72
     0
 73
     1
 93
        4
 10
202.3123876767719
 20
14.63100440853615
 10
218.3117362132134
 20
14.63100440853615
 10
218.3117362132134
 20
-1.368995591463843
 10
202.3123876767719
 20
-1.368995591463843
 97
        0
 75
     2
 76
     1
 47
0.2443766357013505
 98
        2
 10
211.5707843613018
 20
5.597698726265363
 10
174.8904177406655
 20
4.864568386351194
450
        0
451
        0
460
0.0
461
0.0
452
        0
462
1.0
453
        2
463
0.0
 63
     5
421
      255
463
1.0
 63
     2
421
 16776960
470
LINEAR
1001
GradientColor1ACI
1070
     5
1001
GradientColor2ACI
1070
     2
1001
ACAD
1010
0.0
1020
0.0
1030
0.0
  0
HATCH
  5
1E
330
2
100
AcDbEntity
  8
0_LOGO
100
AcDbHatch
 10
0.0
 20
0.0
 30
0.0
210
0.0
220
0.0
230
1.0
  2
SOLID
 70
     1
 71
     0
 91
        1
 92
        1
 93
        4
 72
     1
 10
6.934313964426777
 20
14.63100440853615
 11
23.58233426915989
 21
14.63100440853615
 72
     1
 10
23.58233426915989
 20
14.63100440853615
 11
23.58233426915989
 21
-1.368995591463843
 72
     1
 10
23.58233426915989
 20
-1.368995591463843
 11
6.934313964426777
 21
-1.368995591463843
 72
     1
 10
6.934313964426777
 20
-1.368995591463843
 11
6.934313964426777
 21
14.63100440853615
 97
        0
 75
     2
 76
     1
 98
        1
 10
13.48417150836552
 20
5.678983037498639
450
        0
451
        0
460
0.0
461
0.0
452
        0
462
1.0
453
        2
463
0.0
 63
     5
421
      255
463
1.0
 63
     2
421
 16776960
470
LINEAR
1001
GradientColor1ACI
1070
     5
1001
GradientColor2ACI
1070
     2
1001
ACAD
1010
0.0
1020
0.0
1030
0.0
  0
HATCH
  5
1F
330
2
100
AcDbEntity
  8
0_LOGO
100
AcDbHatch
 10
0.0
 20
0.0
 30
0.0
210
0.0
220
0.0
230
1.0
  2
SOLID
 70
     1
 71
     0
 91
        1
 92
        7
 72
     0
 73
     1
 93
        4
 10
24.18233426916025
 20
14.63100440853615
 10
201.7942782080218
 20
14.63100440853615
 10
201.7942782080218
 20
-1.368995591463843
 10
24.18233426916025
 20
-1.368995591463843
 97
        0
 75
     2
 76
     1
 47
0.2443766357013505
 98
        2
 10
211.6526748925517
 20
5.597698726265363
 10
174.9723082719154
 20
4.864568386351194
450
        0
451
        0
460
0.0
461
0.0
452
        0
462
1.0
453
        2
463
0.0
 63
     5
421
      255
463
1.0
 63
     2
421
 16776960
470
LINEAR
1001
GradientColor1ACI
1070
     5
1001
GradientColor2ACI
1070
     2
1001
ACAD
1010
0.0
1020
0.0
1030
0.0
  0
HATCH
  5
20
330
2
100
AcDbEntity
  8
0_FÜLL_blau
100
AcDbHatch
 10
0.0
 20
0.0
 30
0.0
210
0.0
220
0.0
230
1.0
  2
SOLID
 70
     1
 71
     0
 91
        1
 92
        5
 93
       19
 72
     1
 10
165.1148119247625
 20
-263.9894293959558
 11
162.4248119247624
 21
-263.9894293959558
 72
     1
 10
162.4248119247624
 20
-263.9894293959558
 11
162.4248119247624
 21
-271.1394293959559
 72
     1
 10
162.4248119247624
 20
-271.1394293959555
 11
165.1148119247625
 21
-271.1394293959555
 72
     1
 10
165.1148119247625
 20
-271.1394293959555
 11
165.1148119247625
 21
-266.7894293959555
 72
     4
 94
        3
 73
     0
 74
     0
 95
        8
 96
        4
 40
0.0
 40
0.0
 40
0.0
 40
0.0
 40
1.0
 40
1.0
 40
1.0
 40
1.0
 10
165.1148119247625
 20
-266.7894293959555
 10
165.1048119247628
 20
-266.2394293959558
 10
165.6648119247627
 20
-265.7594293959554
 10
166.3148119247623
 20
-265.8294293959555
 97
        0
 72
     4
 94
        3
 73
     0
 74
     0
 95
        8
 96
        4
 40
0.0
 40
0.0
 40
0.0
 40
0.0
 40
1.0
 40
1.0
 40
1.0
 40
1.0
 10
166.3148119247623
 20
-265.8294293959555
 10
166.9048119247625
 20
-265.8694293959555
 10
167.3848119247625
 20
-266.3194293959557
 10
167.4148119247627
 20
-266.9194293959552
 97
        0
 72
     1
 10
167.4148119247627
 20
-266.9194293959552
 11
167.4148119247627
 21
-271.1394293959555
 72
     1
 10
167.4148119247627
 20
-271.1394293959555
 11
170.094811924763
 21
-271.1394293959555
 72
     1
 10
170.0948119247625
 20
-271.1394293959555
 11
170.0948119247625
 21
-266.7394293959558
 72
     4
 94
        3
 73
     0
 74
     0
 95
        8
 96
        4
 40
0.0
 40
0.0
 40
0.0
 40
0.0
 40
1.0
 40
1.0
 40
1.0
 40
1.0
 10
170.0948119247625
 20
-266.7394293959558
 10
170.0948119247625
 20
-266.1194293959555
 10
170.7848119247626
 20
-265.7194293959554
 10
171.2548119247624
 20
-265.7894293959556
 97
        0
 72
     4
 94
        3
 73
     0
 74
     0
 95
        8
 96
        4
 40
0.0
 40
0.0
 40
0.0
 40
0.0
 40
1.0
 40
1.0
 40
1.0
 40
1.0
 10
171.2548119247624
 20
-265.7894293959556
 10
171.8448119247625
 20
-265.8694293959555
 10
172.2248119247626
 20
-266.1794293959554
 10
172.3148119247623
 20
-266.7194293959554
 97
        0
 72
     1
 10
172.3148119247623
 20
-266.7194293959554
 11
172.3148119247623
 21
-271.1394293959555
 72
     1
 10
172.3148119247623
 20
-271.1394293959555
 11
175.0048119247624
 21
-271.1394293959555
 72
     1
 10
175.0048119247624
 20
-271.1394293959555
 11
175.0048119247624
 21
-266.0794293959555
 72
     4
 94
        3
 73
     0
 74
     0
 95
        8
 96
        4
 40
0.0
 40
0.0
 40
0.0
 40
0.0
 40
1.0
 40
1.0
 40
1.0
 40
1.0
 10
175.0048119247624
 20
-266.0794293959555
 10
174.9748119247627
 20
-265.0194293959556
 10
173.9448119247624
 20
-263.7494293959556
 10
172.1948119247624
 20
-263.7494293959556
 97
        0
 72
     4
 94
        3
 73
     0
 74
     0
 95
        8
 96
        4
 40
0.0
 40
0.0
 40
0.0
 40
0.0
 40
1.0
 40
1.0
 40
1.0
 40
1.0
 10
172.1948119247624
 20
-263.7494293959556
 10
171.0648119247623
 20
-263.7494293959556
 10
170.2248119247626
 20
-264.1094293959557
 10
169.5748119247626
 20
-265.0394293959556
 97
        0
 72
     4
 94
        3
 73
     0
 74
     0
 95
        8
 96
        4
 40
0.0
 40
0.0
 40
0.0
 40
0.0
 40
1.0
 40
1.0
 40
1.0
 40
1.0
 10
169.5748119247626
 20
-265.0394293959556
 10
169.0648119247623
 20
-264.1894293959556
 10
168.3648119247625
 20
-263.7594293959554
 10
167.3748119247627
 20
-263.7494293959556
 97
        0
 72
     4
 94
        3
 73
     0
 74
     0
 95
        8
 96
        4
 40
0.0
 40
0.0
 40
0.0
 40
0.0
 40
1.0
 40
1.0
 40
1.0
 40
1.0
 10
167.3748119247627
 20
-263.7494293959556
 10
166.5048119247624
 20
-263.7394293959558
 10
165.7048119247626
 20
-264.0694293959557
 10
165.1148119247625
 20
-264.9194293959552
 97
        0
 72
     1
 10
165.1148119247625
 20
-264.9194293959552
 11
165.1148119247625
 21
-263.9894293959549
 97
        0
 75
     1
 76
     1
 47
0.0113905381798842
 98
       19
 10
164.0498527883448
 20
-264.4229613623782
 10
177.5969488277212
 20
-265.0720783408486
 10
177.5969488277212
 20
-265.0720783408486
 10
159.7815898654537
 20
-264.5620579039613
 10
157.0443348940045
 20
-264.7011544455443
 10
155.83808646176
 20
-264.8402509871274
 10
155.5597203525983
 20
-263.2174575708221
 10
152.4049176296432
 20
-264.3765956329328
 10
149.574874425886
 20
-264.3765956329328
 10
149.574874425886
 20
-264.3765956329328
 10
145.167428448414
 20
-264.6084236334066
 10
143.5900270869367
 20
-264.5620579039613
 10
143.5900270869367
 20
-264.5620579039613
 10
140.2032530770923
 20
-264.5620579039613
 10
140.2032530770923
 20
-264.5620579039613
 10
144.4715159999834
 20
-269.3840724234308
 10
186.7318156416332
 20
-266.0524790706211
 10
193.7085041221822
 20
-267.0909187764676
 10
197.7163886033673
 20
-264.5689936841616
450
        0
451
        0
460
0.0
461
0.0
452
        0
462
1.0
453
        2
463
0.0
 63
     5
421
      255
463
1.0
 63
     2
421
 16776960
470
LINEAR
1001
GradientColor1ACI
1070
     5
1001
GradientColor2ACI
1070
     2
1001
ACAD
1010
0.0
1020
0.0
1030
0.0
  0
HATCH
  5
22
330
2
100
AcDbEntity
  8
0_FÜLL_blau
100
AcDbHatch
 10
0.0
 20
0.0
 30
0.0
210
0.0
220
0.0
230
1.0
  2
SOLID
 70
     1
 71
     0
 91
        1
 92
        5
 93
       12
 72
     1
 10
201.8648119247624
 20
-264.0394293959555
 11
199.1148119247624
 21
-264.0394293959555
 72
     1
 10
199.1148119247624
 20
-264.0394293959555
 11
199.1148119247624
 21
-261.1994293959559
 72
     1
 10
199.1148119247624
 20
-261.1994293959554
 11
196.4348119247621
 21
-261.1994293959554
 72
     1
 10
196.4348119247626
 20
-261.1994293959554
 11
196.4348119247626
 21
-267.8894293959555
 72
     4
 94
        3
 73
     0
 74
     0
 95
        8
 96
        4
 40
0.0
 40
0.0
 40
0.0
 40
0.0
 40
1.0
 40
1.0
 40
1.0
 40
1.0
 10
196.4348119247626
 20
-267.8894293959555
 10
196.4948119247625
 20
-269.8794293959553
 10
198.2348119247623
 20
-271.4194293959552
 10
200.2548119247623
 20
-271.3894293959555
 97
        0
 72
     4
 94
        3
 73
     0
 74
     0
 95
        8
 96
        4
 40
0.0
 40
0.0
 40
0.0
 40
0.0
 40
1.0
 40
1.0
 40
1.0
 40
1.0
 10
200.2548119247623
 20
-271.3894293959555
 10
200.9048119247624
 20
-271.3794293959552
 10
201.2848119247625
 20
-271.2894293959556
 10
201.8648119247624
 20
-270.9994293959556
 97
        0
 72
     1
 10
201.8648119247624
 20
-270.9994293959556
 11
201.8648119247624
 21
-268.0094293959554
 72
     4
 94
        3
 73
     0
 74
     0
 95
        8
 96
        4
 40
0.0
 40
0.0
 40
0.0
 40
0.0
 40
1.0
 40
1.0
 40
1.0
 40
1.0
 10
201.8648119247624
 20
-268.0094293959554
 10
201.6648119247626
 20
-268.5394293959555
 10
201.2948119247623
 20
-268.9194293959552
 10
200.7448119247625
 20
-268.9194293959552
 97
        0
 72
     4
 94
        3
 73
     0
 74
     0
 95
        8
 96
        4
 40
0.0
 40
0.0
 40
0.0
 40
0.0
 40
1.0
 40
1.0
 40
1.0
 40
1.0
 10
200.7448119247625
 20
-268.9194293959552
 10
199.9548119247625
 20
-268.9194293959552
 10
199.1548119247624
 20
-268.5594293959555
 10
199.1148119247624
 20
-267.8894293959555
 97
        0
 72
     1
 10
199.1148119247624
 20
-267.8894293959555
 11
199.1148119247624
 21
-266.1994293959554
 72
     1
 10
199.1148119247624
 20
-266.1994293959554
 11
201.8648119247624
 21
-266.1994293959554
 72
     1
 10
201.8648119247624
 20
-266.1994293959554
 11
201.8648119247624
 21
-264.0394293959551
 97
        0
 75
     1
 76
     1
 47
0.0113905381798842
 98
       19
 10
164.0498527883448
 20
-264.4229613623782
 10
177.5969488277212
 20
-265.0720783408486
 10
177.5969488277212
 20
-265.0720783408486
 10
159.7815898654537
 20
-264.5620579039613
 10
157.0443348940045
 20
-264.7011544455443
 10
155.83808646176
 20
-264.8402509871274
 10
155.5597203525983
 20
-263.2174575708221
 10
152.4049176296432
 20
-264.3765956329328
 10
149.574874425886
 20
-264.3765956329328
 10
149.574874425886
 20
-264.3765956329328
 10
145.167428448414
 20
-264.6084236334066
 10
143.5900270869367
 20
-264.5620579039613
 10
143.5900270869367
 20
-264.5620579039613
 10
140.2032530770923
 20
-264.5620579039613
 10
140.2032530770923
 20
-264.5620579039613
 10
144.4715159999834
 20
-269.3840724234308
 10
186.7318156416332
 20
-266.0524790706211
 10
193.7085041221822
 20
-267.0909187764676
 10
197.7163886033673
 20
-264.5689936841616
450
        0
451
        0
460
0.0
461
0.0
452
        0
462
1.0
453
        2
463
0.0
 63
     5
421
      255
463
1.0
 63
     2
421
 16776960
470
LINEAR
1001
GradientColor1ACI
1070
     5
1001
GradientColor2ACI
1070
     2
1001
ACAD
1010
0.0
1020
0.0
1030
0.0
  0
HATCH
  5
23
330
2
100
AcDbEntity
  8
0_FÜLL_blau
100
AcDbHatch
 10
0.0
 20
0.0
 30
0.0
210
0.0
220
0.0
230
1.0
  2
SOLID
 70
     1
 71
     0
 91
        1
 92
        7
 72
     0
 73
     1
 93
        4
 10
195.8648119247624
 20
-263.9894293959558
 10
193.1348119247624
 20
-263.9894293959558
 10
193.1348119247624
 20
-271.1394293959555
 10
195.8648119247624
 20
-271.1394293959555
 97
        0
 75
     1
 76
     1
 47
0.0113905381798842
 98
       19
 10
164.0498527883448
 20
-264.4229613623782
 10
177.5969488277212
 20
-265.0720783408486
 10
177.5969488277212
 20
-265.0720783408486
 10
159.7815898654537
 20
-264.5620579039613
 10
157.0443348940045
 20
-264.7011544455443
 10
155.83808646176
 20
-264.8402509871274
 10
155.5597203525983
 20
-263.2174575708221
 10
152.4049176296432
 20
-264.3765956329328
 10
149.574874425886
 20
-264.3765956329328
 10
149.574874425886
 20
-264.3765956329328
 10
145.167428448414
 20
-264.6084236334066
 10
143.5900270869367
 20
-264.5620579039613
 10
143.5900270869367
 20
-264.5620579039613
 10
140.2032530770923
 20
-264.5620579039613
 10
140.2032530770923
 20
-264.5620579039613
 10
144.4715159999834
 20
-269.3840724234308
 10
186.7318156416332
 20
-266.0524790706211
 10
193.7085041221822
 20
-267.0909187764676
 10
197.7163886033673
 20
-264.5689936841616
450
        0
451
        0
460
0.0
461
0.0
452
        0
462
1.0
453
        2
463
0.0
 63
     5
421
      255
463
1.0
 63
     2
421
 16776960
470
LINEAR
1001
GradientColor1ACI
1070
     5
1001
GradientColor2ACI
1070
     2
1001
ACAD
1010
0.0
1020
0.0
1030
0.0
  0
HATCH
  5
24
330
2
100
AcDbEntity
  8
0_FÜLL_blau
100
AcDbHatch
 10
0.0
 20
0.0
 30
0.0
210
0.0
220
0.0
230
1.0
  2
SOLID
 70
     1
 71
     0
 91
        1
 92
        7
 72
     0
 73
     1
 93
       12
 10
193.1348119247624
 20
-263.9894293959558
 10
189.6548119247624
 20
-263.9894293959558
 10
188.4348119247626
 20
-265.5694293959558
 10
187.1948119247623
 20
-263.9894293959558
 10
183.7748119247624
 20
-263.9894293959558
 10
186.8048119247625
 20
-267.4994293959556
 10
183.7848119247626
 20
-271.1394293959555
 10
187.1348119247624
 20
-271.1394293959555
 10
188.4348119247626
 20
-269.4494293959554
 10
189.7548119247623
 20
-271.1394293959555
 10
193.1248119247626
 20
-271.1394293959555
 10
190.0748119247624
 20
-267.5094293959554
 97
        0
 75
     1
 76
     1
 47
0.0113905381798842
 98
       19
 10
164.0498527883448
 20
-264.4229613623782
 10
177.5969488277212
 20
-265.0720783408486
 10
177.5969488277212
 20
-265.0720783408486
 10
159.7815898654537
 20
-264.5620579039613
 10
157.0443348940045
 20
-264.7011544455443
 10
155.83808646176
 20
-264.8402509871274
 10
155.5597203525983
 20
-263.2174575708221
 10
152.4049176296432
 20
-264.3765956329328
 10
149.574874425886
 20
-264.3765956329328
 10
149.574874425886
 20
-264.3765956329328
 10
145.167428448414
 20
-264.6084236334066
 10
143.5900270869367
 20
-264.5620579039613
 10
143.5900270869367
 20
-264.5620579039613
 10
140.2032530770923
 20
-264.5620579039613
 10
140.2032530770923
 20
-264.5620579039613
 10
144.4715159999834
 20
-269.3840724234308
 10
186.7318156416332
 20
-266.0524790706211
 10
193.7085041221822
 20
-267.0909187764676
 10
197.7163886033673
 20
-264.5689936841616
450
        0
451
        0
460
0.0
461
0.0
452
        0
462
1.0
453
        2
463
0.0
 63
     5
421
      255
463
1.0
 63
     2
421
 16776960
470
LINEAR
1001
GradientColor1ACI
1070
     5
1001
GradientColor2ACI
1070
     2
1001
ACAD
1010
0.0
1020
0.0
1030
0.0
  0
HATCH
  5
25
330
2
100
AcDbEntity
  8
0_FÜLL_blau
100
AcDbHatch
 10
0.0
 20
0.0
 30
0.0
210
0.0
220
0.0
230
1.0
  2
SOLID
 70
     1
 71
     0
 91
        1
 92
        1
 93
        4
 72
     1
 10
160.3448119247625
 20
-267.6194293959555
 11
6.932096969035001
 21
-267.6194293959555
 72
     1
 10
6.932096969034986
 20
-267.6194293959555
 11
6.932096969034986
 21
-271.1394293959555
 72
     1
 10
6.932096969034986
 20
-271.1394293959555
 11
160.3448119247625
 21
-271.1394293959555
 72
     1
 10
160.3448119247625
 20
-271.1394293959555
 11
160.3448119247625
 21
-267.6194293959555
 97
        0
 75
     1
 76
     1
 98
       19
 10
164.0498527883448
 20
-264.4229613623782
 10
177.5969488277212
 20
-265.0720783408486
 10
177.5969488277212
 20
-265.0720783408486
 10
159.7815898654537
 20
-264.5620579039613
 10
157.0443348940045
 20
-264.7011544455443
 10
155.83808646176
 20
-264.8402509871274
 10
155.5597203525983
 20
-263.2174575708221
 10
152.4049176296432
 20
-264.3765956329328
 10
149.574874425886
 20
-264.3765956329328
 10
149.574874425886
 20
-264.3765956329328
 10
145.167428448414
 20
-264.6084236334066
 10
143.5900270869367
 20
-264.5620579039613
 10
143.5900270869367
 20
-264.5620579039613
 10
140.2032530770923
 20
-264.5620579039613
 10
140.2032530770923
 20
-264.5620579039613
 10
144.4715159999834
 20
-269.3840724234308
 10
186.7318156416332
 20
-266.0524790706211
 10
193.7085041221822
 20
-267.0909187764676
 10
197.7163886033673
 20
-264.5689936841616
450
        0
451
        0
460
0.0
461
0.0
452
        0
462
1.0
453
        2
463
0.0
 63
     5
421
      255
463
1.0
 63
     2
421
 16776960
470
LINEAR
1001
GradientColor1ACI
1070
     5
1001
GradientColor2ACI
1070
     2
1001
ACAD
1010
0.0
1020
0.0
1030
0.0
  0
HATCH
  5
26
330
2
100
AcDbEntity
  8
0_FÜLL_blau
100
AcDbHatch
 10
0.0
 20
0.0
 30
0.0
210
0.0
220
0.0
230
1.0
  2
SOLID
 70
     1
 71
     0
 91
        2
 92
        5
 93
        9
 72
     4
 94
        3
 73
     0
 74
     0
 95
        8
 96
        4
 40
0.0
 40
0.0
 40
0.0
 40
0.0
 40
1.0
 40
1.0
 40
1.0
 40
1.0
 10
140.7248119247626
 20
-265.1794293959554
 10
140.7248119247626
 20
-264.4994293959556
 10
140.2448119247626
 20
-263.9294293959554
 10
139.5548119247626
 20
-263.9294293959554
 97
        0
 72
     4
 94
        3
 73
     0
 74
     0
 95
        8
 96
        4
 40
0.0
 40
0.0
 40
0.0
 40
0.0
 40
1.0
 40
1.0
 40
1.0
 40
1.0
 10
139.5548119247626
 20
-263.9294293959554
 10
139.2848119247626
 20
-263.9294293959554
 10
139.0048119247624
 20
-264.0294293959558
 10
138.8248119247625
 20
-264.2394293959558
 97
        0
 72
     1
 10
138.8248119247625
 20
-264.2394293959558
 11
138.8248119247625
 21
-262.559429395956
 72
     1
 10
138.8248119247625
 20
-262.5594293959555
 11
137.9948119247626
 21
-262.5594293959555
 72
     1
 10
137.9948119247626
 20
-262.5594293959555
 11
137.9948119247626
 21
-266.3494293959555
 72
     1
 10
137.9948119247626
 20
-266.3494293959555
 11
138.8248119247625
 21
-266.3494293959555
 72
     1
 10
138.8248119247625
 20
-266.3494293959555
 11
138.8248119247625
 21
-266.0894293959553
 72
     4
 94
        3
 73
     0
 74
     0
 95
        8
 96
        4
 40
0.0
 40
0.0
 40
0.0
 40
0.0
 40
1.0
 40
1.0
 40
1.0
 40
1.0
 10
138.8248119247625
 20
-266.0894293959553
 10
138.9848119247624
 20
-266.3194293959557
 10
139.2648119247626
 20
-266.4294293959554
 10
139.5448119247624
 20
-266.4294293959554
 97
        0
 72
     4
 94
        3
 73
     0
 74
     0
 95
        8
 96
        4
 40
0.0
 40
0.0
 40
0.0
 40
0.0
 40
1.0
 40
1.0
 40
1.0
 40
1.0
 10
139.5448119247624
 20
-266.4294293959554
 10
140.2448119247626
 20
-266.4294293959554
 10
140.7248119247626
 20
-265.8494293959555
 10
140.7248119247626
 20
-265.1794293959554
 97
        0
 97
        0
 92
       20
 93
        4
 72
     4
 94
        3
 73
     0
 74
     0
 95
        8
 96
        4
 40
0.0
 40
0.0
 40
0.0
 40
0.0
 40
1.0
 40
1.0
 40
1.0
 40
1.0
 10
139.3348119247623
 20
-264.6494293959557
 10
139.6748119247624
 20
-264.6494293959557
 10
139.8648119247625
 20
-264.8894293959555
 10
139.8648119247625
 20
-265.1794293959554
 97
        0
 72
     4
 94
        3
 73
     0
 74
     0
 95
        8
 96
        4
 40
0.0
 40
0.0
 40
0.0
 40
0.0
 40
1.0
 40
1.0
 40
1.0
 40
1.0
 10
139.8648119247625
 20
-265.1794293959554
 10
139.8648119247625
 20
-265.4794293959556
 10
139.6748119247624
 20
-265.7094293959552
 10
139.3348119247623
 20
-265.7094293959552
 97
        0
 72
     4
 94
        3
 73
     0
 74
     0
 95
        8
 96
        4
 40
0.0
 40
0.0
 40
0.0
 40
0.0
 40
1.0
 40
1.0
 40
1.0
 40
1.0
 10
139.3348119247623
 20
-265.7094293959552
 10
138.9948119247626
 20
-265.7094293959552
 10
138.7948119247623
 20
-265.4794293959556
 10
138.7948119247623
 20
-265.1794293959554
 97
        0
 72
     4
 94
        3
 73
     0
 74
     0
 95
        8
 96
        4
 40
0.0
 40
0.0
 40
0.0
 40
0.0
 40
1.0
 40
1.0
 40
1.0
 40
1.0
 10
138.7948119247623
 20
-265.1794293959554
 10
138.7948119247623
 20
-264.8894293959555
 10
138.9948119247626
 20
-264.6494293959557
 10
139.3348119247623
 20
-264.6494293959557
 97
        0
 97
        0
 75
     1
 76
     1
 47
0.0113905381798842
 98
       19
 10
164.0498527883448
 20
-264.4229613623782
 10
177.5969488277212
 20
-265.0720783408486
 10
177.5969488277212
 20
-265.0720783408486
 10
159.7815898654537
 20
-264.5620579039613
 10
157.0443348940045
 20
-264.7011544455443
 10
155.83808646176
 20
-264.8402509871274
 10
155.5597203525983
 20
-263.2174575708221
 10
152.4049176296432
 20
-264.3765956329328
 10
149.574874425886
 20
-264.3765956329328
 10
149.574874425886
 20
-264.3765956329328
 10
145.167428448414
 20
-264.6084236334066
 10
143.5900270869367
 20
-264.5620579039613
 10
143.5900270869367
 20
-264.5620579039613
 10
140.2032530770923
 20
-264.5620579039613
 10
140.2032530770923
 20
-264.5620579039613
 10
144.4715159999834
 20
-269.3840724234308
 10
186.7318156416332
 20
-266.0524790706211
 10
193.7085041221822
 20
-267.0909187764676
 10
197.7163886033673
 20
-264.5689936841616
450
        0
451
        0
460
0.0
461
0.0
452
        0
462
1.0
453
        2
463
0.0
 63
     5
421
      255
463
1.0
 63
     2
421
 16776960
470
LINEAR
1001
GradientColor1ACI
1070
     5
1001
GradientColor2ACI
1070
     2
1001
ACAD
1010
0.0
1020
0.0
1030
0.0
  0
HATCH
  5
27
330
2
100
AcDbEntity
  8
0_FÜLL_blau
100
AcDbHatch
 10
0.0
 20
0.0
 30
0.0
210
0.0
220
0.0
230
1.0
  2
SOLID
 70
     1
 71
     0
 91
        2
 92
        5
 93
        9
 72
     1
 10
143.8348119247623
 20
-264.0094293959553
 11
143.0048119247624
 21
-264.0094293959553
 72
     1
 10
143.0048119247624
 20
-264.0094293959553
 11
143.0048119247624
 21
-264.2394293959554
 72
     4
 94
        3
 73
     0
 74
     0
 95
        8
 96
        4
 40
0.0
 40
0.0
 40
0.0
 40
0.0
 40
1.0
 40
1.0
 40
1.0
 40
1.0
 10
143.0048119247624
 20
-264.2394293959558
 10
142.8248119247625
 20
-264.0294293959558
 10
142.5448119247624
 20
-263.9294293959554
 10
142.2748119247624
 20
-263.9294293959554
 97
        0
 72
     4
 94
        3
 73
     0
 74
     0
 95
        8
 96
        4
 40
0.0
 40
0.0
 40
0.0
 40
0.0
 40
1.0
 40
1.0
 40
1.0
 40
1.0
 10
142.2748119247624
 20
-263.9294293959554
 10
141.5848119247623
 20
-263.9294293959554
 10
141.1048119247627
 20
-264.4994293959556
 10
141.1048119247627
 20
-265.1794293959554
 97
        0
 72
     4
 94
        3
 73
     0
 74
     0
 95
        8
 96
        4
 40
0.0
 40
0.0
 40
0.0
 40
0.0
 40
1.0
 40
1.0
 40
1.0
 40
1.0
 10
141.1048119247627
 20
-265.1794293959554
 10
141.1048119247627
 20
-265.8494293959555
 10
141.5948119247625
 20
-266.4294293959554
 10
142.2848119247626
 20
-266.4294293959554
 97
        0
 72
     4
 94
        3
 73
     0
 74
     0
 95
        8
 96
        4
 40
0.0
 40
0.0
 40
0.0
 40
0.0
 40
1.0
 40
1.0
 40
1.0
 40
1.0
 10
142.2848119247626
 20
-266.4294293959554
 10
142.5648119247623
 20
-266.4294293959554
 10
142.8448119247625
 20
-266.3194293959557
 10
142.9948119247626
 20
-266.0894293959553
 97
        0
 72
     1
 10
142.9948119247626
 20
-266.0894293959553
 11
143.0048119247628
 21
-266.3494293959555
 72
     1
 10
143.0048119247624
 20
-266.3494293959555
 11
143.8348119247623
 21
-266.3494293959555
 72
     1
 10
143.8348119247623
 20
-266.3494293959555
 11
143.8348119247623
 21
-264.0094293959553
 97
        0
 92
       20
 93
        4
 72
     4
 94
        3
 73
     0
 74
     0
 95
        8
 96
        4
 40
0.0
 40
0.0
 40
0.0
 40
0.0
 40
1.0
 40
1.0
 40
1.0
 40
1.0
 10
142.4948119247626
 20
-264.6494293959557
 10
142.8348119247623
 20
-264.6494293959557
 10
143.0348119247626
 20
-264.8894293959555
 10
143.0348119247626
 20
-265.1794293959554
 97
        0
 72
     4
 94
        3
 73
     0
 74
     0
 95
        8
 96
        4
 40
0.0
 40
0.0
 40
0.0
 40
0.0
 40
1.0
 40
1.0
 40
1.0
 40
1.0
 10
143.0348119247626
 20
-265.1794293959554
 10
143.0348119247626
 20
-265.4794293959556
 10
142.8348119247623
 20
-265.7094293959552
 10
142.4948119247626
 20
-265.7094293959552
 97
        0
 72
     4
 94
        3
 73
     0
 74
     0
 95
        8
 96
        4
 40
0.0
 40
0.0
 40
0.0
 40
0.0
 40
1.0
 40
1.0
 40
1.0
 40
1.0
 10
142.4948119247626
 20
-265.7094293959552
 10
142.1548119247625
 20
-265.7094293959552
 10
141.9648119247624
 20
-265.4794293959556
 10
141.9648119247624
 20
-265.1794293959554
 97
        0
 72
     4
 94
        3
 73
     0
 74
     0
 95
        8
 96
        4
 40
0.0
 40
0.0
 40
0.0
 40
0.0
 40
1.0
 40
1.0
 40
1.0
 40
1.0
 10
141.9648119247624
 20
-265.1794293959554
 10
141.9648119247624
 20
-264.8894293959555
 10
142.1548119247625
 20
-264.6494293959557
 10
142.4948119247626
 20
-264.6494293959557
 97
        0
 97
        0
 75
     1
 76
     1
 47
0.0113905381798842
 98
       19
 10
164.0498527883448
 20
-264.4229613623782
 10
177.5969488277212
 20
-265.0720783408486
 10
177.5969488277212
 20
-265.0720783408486
 10
159.7815898654537
 20
-264.5620579039613
 10
157.0443348940045
 20
-264.7011544455443
 10
155.83808646176
 20
-264.8402509871274
 10
155.5597203525983
 20
-263.2174575708221
 10
152.4049176296432
 20
-264.3765956329328
 10
149.574874425886
 20
-264.3765956329328
 10
149.574874425886
 20
-264.3765956329328
 10
145.167428448414
 20
-264.6084236334066
 10
143.5900270869367
 20
-264.5620579039613
 10
143.5900270869367
 20
-264.5620579039613
 10
140.2032530770923
 20
-264.5620579039613
 10
140.2032530770923
 20
-264.5620579039613
 10
144.4715159999834
 20
-269.3840724234308
 10
186.7318156416332
 20
-266.0524790706211
 10
193.7085041221822
 20
-267.0909187764676
 10
197.7163886033673
 20
-264.5689936841616
450
        0
451
        0
460
0.0
461
0.0
452
        0
462
1.0
453
        2
463
0.0
 63
     5
421
      255
463
1.0
 63
     2
421
 16776960
470
LINEAR
1001
GradientColor1ACI
1070
     5
1001
GradientColor2ACI
1070
     2
1001
ACAD
1010
0.0
1020
0.0
1030
0.0
  0
HATCH
  5
28
330
2
100
AcDbEntity
  8
0_FÜLL_blau
100
AcDbHatch
 10
0.0
 20
0.0
 30
0.0
210
0.0
220
0.0
230
1.0
  2
SOLID
 70
     1
 71
     0
 91
        1
 92
        5
 93
       10
 72
     1
 10
145.3148119247623
 20
-264.0094293959553
 11
144.4748119247622
 21
-264.0094293959553
 72
     1
 10
144.4748119247626
 20
-264.0094293959553
 11
144.4748119247626
 21
-265.4194293959552
 72
     4
 94
        3
 73
     0
 74
     0
 95
        8
 96
        4
 40
0.0
 40
0.0
 40
0.0
 40
0.0
 40
1.0
 40
1.0
 40
1.0
 40
1.0
 10
144.4748119247626
 20
-265.4194293959552
 10
144.4748119247626
 20
-266.1894293959556
 10
145.0248119247624
 20
-266.4294293959554
 10
145.7248119247626
 20
-266.4294293959554
 97
        0
 72
     4
 94
        3
 73
     0
 74
     0
 95
        8
 96
        4
 40
0.0
 40
0.0
 40
0.0
 40
0.0
 40
1.0
 40
1.0
 40
1.0
 40
1.0
 10
145.7248119247626
 20
-266.4294293959554
 10
146.4248119247625
 20
-266.4294293959554
 10
146.9748119247626
 20
-266.1894293959556
 10
146.9748119247626
 20
-265.4194293959552
 97
        0
 72
     1
 10
146.9748119247626
 20
-265.4194293959557
 11
146.9748119247626
 21
-264.0094293959553
 72
     1
 10
146.9748119247626
 20
-264.0094293959553
 11
146.1448119247627
 21
-264.0094293959553
 72
     1
 10
146.1448119247627
 20
-264.0094293959553
 11
146.1448119247627
 21
-265.3021699207364
 72
     4
 94
        3
 73
     0
 74
     0
 95
        8
 96
        4
 40
0.0
 40
0.0
 40
0.0
 40
0.0
 40
1.0
 40
1.0
 40
1.0
 40
1.0
 10
146.1448119247627
 20
-265.2594293959554
 10
146.1448119247627
 20
-265.5494293959553
 10
146.0648119247623
 20
-265.7694293959556
 10
145.7248119247626
 20
-265.7694293959556
 97
        0
 72
     4
 94
        3
 73
     0
 74
     0
 95
        8
 96
        4
 40
0.0
 40
0.0
 40
0.0
 40
0.0
 40
1.0
 40
1.0
 40
1.0
 40
1.0
 10
145.7248119247626
 20
-265.7694293959556
 10
145.3848119247625
 20
-265.7694293959556
 10
145.3148119247623
 20
-265.5494293959553
 10
145.3148119247623
 20
-265.2594293959554
 97
        0
 72
     1
 10
145.3148119247623
 20
-265.2594293959554
 11
145.3148119247623
 21
-264.0094293959553
 97
        0
 75
     1
 76
     1
 47
0.0113905381798842
 98
       19
 10
164.0498527883448
 20
-264.4229613623782
 10
177.5969488277212
 20
-265.0720783408486
 10
177.5969488277212
 20
-265.0720783408486
 10
159.7815898654537
 20
-264.5620579039613
 10
157.0443348940045
 20
-264.7011544455443
 10
155.83808646176
 20
-264.8402509871274
 10
155.5597203525983
 20
-263.2174575708221
 10
152.4049176296432
 20
-264.3765956329328
 10
149.574874425886
 20
-264.3765956329328
 10
149.574874425886
 20
-264.3765956329328
 10
145.167428448414
 20
-264.6084236334066
 10
143.5900270869367
 20
-264.5620579039613
 10
143.5900270869367
 20
-264.5620579039613
 10
140.2032530770923
 20
-264.5620579039613
 10
140.2032530770923
 20
-264.5620579039613
 10
144.4715159999834
 20
-269.3840724234308
 10
186.7318156416332
 20
-266.0524790706211
 10
193.7085041221822
 20
-267.0909187764676
 10
197.7163886033673
 20
-264.5689936841616
450
        0
451
        0
460
0.0
461
0.0
452
        0
462
1.0
453
        2
463
0.0
 63
     5
421
      255
463
1.0
 63
     2
421
 16776960
470
LINEAR
1001
GradientColor1ACI
1070
     5
1001
GradientColor2ACI
1070
     2
1001
ACAD
1010
0.0
1020
0.0
1030
0.0
  0
HATCH
  5
29
330
2
100
AcDbEntity
  8
0_FÜLL_blau
100
AcDbHatch
 10
0.0
 20
0.0
 30
0.0
210
0.0
220
0.0
230
1.0
  2
SOLID
 70
     1
 71
     0
 91
        2
 92
        5
 93
        9
 72
     4
 94
        3
 73
     0
 74
     0
 95
        8
 96
        4
 40
0.0
 40
0.0
 40
0.0
 40
0.0
 40
1.0
 40
1.0
 40
1.0
 40
1.0
 10
150.0448119247623
 20
-265.2294293959556
 10
150.0448119247623
 20
-264.4294293959554
 10
149.5748119247626
 20
-263.9294293959554
 10
148.7648119247626
 20
-263.9294293959554
 97
        0
 72
     4
 94
        3
 73
     0
 74
     0
 95
        8
 96
        4
 40
0.0
 40
0.0
 40
0.0
 40
0.0
 40
1.0
 40
1.0
 40
1.0
 40
1.0
 10
148.7648119247626
 20
-263.9294293959554
 10
148.0048119247624
 20
-263.9294293959554
 10
147.4648119247624
 20
-264.3994293959557
 10
147.4648119247624
 20
-265.1794293959554
 97
        0
 72
     4
 94
        3
 73
     0
 74
     0
 95
        8
 96
        4
 40
0.0
 40
0.0
 40
0.0
 40
0.0
 40
1.0
 40
1.0
 40
1.0
 40
1.0
 10
147.4648119247624
 20
-265.1794293959554
 10
147.4648119247624
 20
-265.9894293959558
 10
148.0448119247624
 20
-266.4294293959554
 10
148.8248119247626
 20
-266.4294293959554
 97
        0
 72
     4
 94
        3
 73
     0
 74
     0
 95
        8
 96
        4
 40
0.0
 40
0.0
 40
0.0
 40
0.0
 40
1.0
 40
1.0
 40
1.0
 40
1.0
 10
148.8248119247626
 20
-266.4294293959554
 10
149.3548119247627
 20
-266.4294293959554
 10
149.8848119247625
 20
-266.1794293959554
 10
150.0148119247626
 20
-265.6194293959555
 97
        0
 72
     1
 10
150.0148119247626
 20
-265.6194293959555
 11
149.2148119247624
 21
-265.6194293959555
 72
     4
 94
        3
 73
     0
 74
     0
 95
        8
 96
        4
 40
0.0
 40
0.0
 40
0.0
 40
0.0
 40
1.0
 40
1.0
 40
1.0
 40
1.0
 10
149.2148119247624
 20
-265.6194293959555
 10
149.1248119247627
 20
-265.7794293959558
 10
148.9948119247626
 20
-265.8394293959553
 10
148.8148119247623
 20
-265.8394293959553
 97
        0
 72
     4
 94
        3
 73
     0
 74
     0
 95
        8
 96
        4
 40
0.0
 40
0.0
 40
0.0
 40
0.0
 40
1.0
 40
1.0
 40
1.0
 40
1.0
 10
148.8148119247623
 20
-265.8394293959553
 10
148.4748119247626
 20
-265.8394293959553
 10
148.2948119247623
 20
-265.6594293959555
 10
148.2948119247623
 20
-265.3194293959558
 97
        0
 72
     1
 10
148.2948119247623
 20
-265.3194293959558
 11
150.0448119247623
 21
-265.3194293959558
 72
     1
 10
150.0448119247623
 20
-265.3194293959558
 11
150.0448119247623
 21
-265.2294293959556
 97
        0
 92
       20
 93
        3
 72
     4
 94
        3
 73
     0
 74
     0
 95
        8
 96
        4
 40
0.0
 40
0.0
 40
0.0
 40
0.0
 40
1.0
 40
1.0
 40
1.0
 40
1.0
 10
148.8048119247626
 20
-264.4694293959554
 10
149.0248119247624
 20
-264.4694293959554
 10
149.2348119247624
 20
-264.6094293959557
 10
149.2748119247624
 20
-264.8394293959553
 97
        0
 72
     1
 10
149.2748119247624
 20
-264.8394293959553
 11
148.3148119247623
 21
-264.8394293959553
 72
     4
 94
        3
 73
     0
 74
     0
 95
        8
 96
        4
 40
0.0
 40
0.0
 40
0.0
 40
0.0
 40
1.0
 40
1.0
 40
1.0
 40
1.0
 10
148.3148119247623
 20
-264.8394293959553
 10
148.3648119247625
 20
-264.5994293959555
 10
148.5648119247623
 20
-264.4694293959554
 10
148.8048119247626
 20
-264.4694293959554
 97
        0
 97
        0
 75
     1
 76
     1
 47
0.0113905381798842
 98
       19
 10
164.0498527883448
 20
-264.4229613623782
 10
177.5969488277212
 20
-265.0720783408486
 10
177.5969488277212
 20
-265.0720783408486
 10
159.7815898654537
 20
-264.5620579039613
 10
157.0443348940045
 20
-264.7011544455443
 10
155.83808646176
 20
-264.8402509871274
 10
155.5597203525983
 20
-263.2174575708221
 10
152.4049176296432
 20
-264.3765956329328
 10
149.574874425886
 20
-264.3765956329328
 10
149.574874425886
 20
-264.3765956329328
 10
145.167428448414
 20
-264.6084236334066
 10
143.5900270869367
 20
-264.5620579039613
 10
143.5900270869367
 20
-264.5620579039613
 10
140.2032530770923
 20
-264.5620579039613
 10
140.2032530770923
 20
-264.5620579039613
 10
144.4715159999834
 20
-269.3840724234308
 10
186.7318156416332
 20
-266.0524790706211
 10
193.7085041221822
 20
-267.0909187764676
 10
197.7163886033673
 20
-264.5689936841616
450
        0
451
        0
460
0.0
461
0.0
452
        0
462
1.0
453
        2
463
0.0
 63
     5
421
      255
463
1.0
 63
     2
421
 16776960
470
LINEAR
1001
GradientColor1ACI
1070
     5
1001
GradientColor2ACI
1070
     2
1001
ACAD
1010
0.0
1020
0.0
1030
0.0
  0
HATCH
  5
2A
330
2
100
AcDbEntity
  8
0_FÜLL_blau
100
AcDbHatch
 10
0.0
 20
0.0
 30
0.0
210
0.0
220
0.0
230
1.0
  2
SOLID
 70
     1
 71
     0
 91
        1
 92
        5
 93
       12
 72
     4
 94
        3
 73
     0
 74
     0
 95
        8
 96
        4
 40
0.0
 40
0.0
 40
0.0
 40
0.0
 40
1.0
 40
1.0
 40
1.0
 40
1.0
 10
153.0048119247624
 20
-264.8994293959557
 10
153.0048119247624
 20
-264.3294293959555
 10
152.7548119247624
 20
-263.9294293959554
 10
152.1248119247627
 20
-263.9294293959554
 97
        0
 72
     4
 94
        3
 73
     0
 74
     0
 95
        8
 96
        4
 40
0.0
 40
0.0
 40
0.0
 40
0.0
 40
1.0
 40
1.0
 40
1.0
 40
1.0
 10
152.1248119247627
 20
-263.9294293959554
 10
151.7948119247624
 20
-263.9294293959554
 10
151.5648119247623
 20
-264.0294293959558
 10
151.3748119247627
 20
-264.3094293959555
 97
        0
 72
     1
 10
151.3748119247627
 20
-264.3094293959555
 11
151.3648119247625
 21
-264.0094293959553
 72
     1
 10
151.3648119247625
 20
-264.0094293959553
 11
150.5348119247626
 21
-264.0094293959553
 72
     1
 10
150.5348119247626
 20
-264.0094293959553
 11
150.5348119247626
 21
-266.3494293959555
 72
     1
 10
150.5348119247626
 20
-266.3494293959555
 11
151.3648119247625
 21
-266.3494293959555
 72
     1
 10
151.3648119247625
 20
-266.3494293959555
 11
151.3648119247625
 21
-265.0956862880538
 72
     4
 94
        3
 73
     0
 74
     0
 95
        8
 96
        4
 40
0.0
 40
0.0
 40
0.0
 40
0.0
 40
1.0
 40
1.0
 40
1.0
 40
1.0
 10
151.3648119247625
 20
-265.1394293959555
 10
151.3648119247625
 20
-264.8394293959553
 10
151.4648119247624
 20
-264.5894293959553
 10
151.7948119247624
 20
-264.5894293959553
 97
        0
 72
     4
 94
        3
 73
     0
 74
     0
 95
        8
 96
        4
 40
0.0
 40
0.0
 40
0.0
 40
0.0
 40
1.0
 40
1.0
 40
1.0
 40
1.0
 10
151.7948119247624
 20
-264.5894293959553
 10
152.2148119247624
 20
-264.5894293959553
 10
152.1748119247624
 20
-264.9794293959556
 10
152.1748119247624
 20
-265.2094293959552
 97
        0
 72
     1
 10
152.1748119247624
 20
-265.2094293959556
 11
152.1748119247624
 21
-266.3494293959555
 72
     1
 10
152.1748119247624
 20
-266.3494293959555
 11
153.0048119247624
 21
-266.3494293959555
 72
     1
 10
153.0048119247624
 20
-266.3494293959555
 11
153.0048119247624
 21
-264.8994293959557
 97
        0
 75
     1
 76
     1
 47
0.0113905381798842
 98
       19
 10
164.0498527883448
 20
-264.4229613623782
 10
177.5969488277212
 20
-265.0720783408486
 10
177.5969488277212
 20
-265.0720783408486
 10
159.7815898654537
 20
-264.5620579039613
 10
157.0443348940045
 20
-264.7011544455443
 10
155.83808646176
 20
-264.8402509871274
 10
155.5597203525983
 20
-263.2174575708221
 10
152.4049176296432
 20
-264.3765956329328
 10
149.574874425886
 20
-264.3765956329328
 10
149.574874425886
 20
-264.3765956329328
 10
145.167428448414
 20
-264.6084236334066
 10
143.5900270869367
 20
-264.5620579039613
 10
143.5900270869367
 20
-264.5620579039613
 10
140.2032530770923
 20
-264.5620579039613
 10
140.2032530770923
 20
-264.5620579039613
 10
144.4715159999834
 20
-269.3840724234308
 10
186.7318156416332
 20
-266.0524790706211
 10
193.7085041221822
 20
-267.0909187764676
 10
197.7163886033673
 20
-264.5689936841616
450
        0
451
        0
460
0.0
461
0.0
452
        0
462
1.0
453
        2
463
0.0
 63
     5
421
      255
463
1.0
 63
     2
421
 16776960
470
LINEAR
1001
GradientColor1ACI
1070
     5
1001
GradientColor2ACI
1070
     2
1001
ACAD
1010
0.0
1020
0.0
1030
0.0
  0
HATCH
  5
2B
330
2
100
AcDbEntity
  8
0_FÜLL_blau
100
AcDbHatch
 10
0.0
 20
0.0
 30
0.0
210
0.0
220
0.0
230
1.0
  2
SOLID
 70
     1
 71
     0
 91
        1
 92
        7
 72
     1
 73
     1
 93
        2
 10
156.0648119247628
 20
-263.1094293959557
 42
1.0
 10
155.1248119247627
 20
-263.1094293959557
 42
1.0
 97
        0
 75
     1
 76
     1
 47
0.0113905381798842
 98
       19
 10
164.0498527883448
 20
-264.4229613623782
 10
177.5969488277212
 20
-265.0720783408486
 10
177.5969488277212
 20
-265.0720783408486
 10
159.7815898654537
 20
-264.5620579039613
 10
157.0443348940045
 20
-264.7011544455443
 10
155.83808646176
 20
-264.8402509871274
 10
155.5597203525983
 20
-263.2174575708221
 10
152.4049176296432
 20
-264.3765956329328
 10
149.574874425886
 20
-264.3765956329328
 10
149.574874425886
 20
-264.3765956329328
 10
145.167428448414
 20
-264.6084236334066
 10
143.5900270869367
 20
-264.5620579039613
 10
143.5900270869367
 20
-264.5620579039613
 10
140.2032530770923
 20
-264.5620579039613
 10
140.2032530770923
 20
-264.5620579039613
 10
144.4715159999834
 20
-269.3840724234308
 10
186.7318156416332
 20
-266.0524790706211
 10
193.7085041221822
 20
-267.0909187764676
 10
197.7163886033673
 20
-264.5689936841616
450
        0
451
        0
460
0.0
461
0.0
452
        0
462
1.0
453
        2
463
0.0
 63
     5
421
      255
463
1.0
 63
     2
421
 16776960
470
LINEAR
1001
GradientColor1ACI
1070
     5
1001
GradientColor2ACI
1070
     2
1001
ACAD
1010
0.0
1020
0.0
1030
0.0
  0
HATCH
  5
2C
330
2
100
AcDbEntity
  8
0_FÜLL_blau
100
AcDbHatch
 10
0.0
 20
0.0
 30
0.0
210
0.0
220
0.0
230
1.0
  2
SOLID
 70
     1
 71
     0
 91
        1
 92
        7
 72
     0
 73
     1
 93
        4
 10
156.0148119247626
 20
-264.0094293959553
 10
155.1848119247627
 20
-264.0094293959553
 10
155.1848119247627
 20
-266.3494293959555
 10
156.0148119247626
 20
-266.3494293959555
 97
        0
 75
     1
 76
     1
 47
0.0113905381798842
 98
       19
 10
164.0498527883448
 20
-264.4229613623782
 10
177.5969488277212
 20
-265.0720783408486
 10
177.5969488277212
 20
-265.0720783408486
 10
159.7815898654537
 20
-264.5620579039613
 10
157.0443348940045
 20
-264.7011544455443
 10
155.83808646176
 20
-264.8402509871274
 10
155.5597203525983
 20
-263.2174575708221
 10
152.4049176296432
 20
-264.3765956329328
 10
149.574874425886
 20
-264.3765956329328
 10
149.574874425886
 20
-264.3765956329328
 10
145.167428448414
 20
-264.6084236334066
 10
143.5900270869367
 20
-264.5620579039613
 10
143.5900270869367
 20
-264.5620579039613
 10
140.2032530770923
 20
-264.5620579039613
 10
140.2032530770923
 20
-264.5620579039613
 10
144.4715159999834
 20
-269.3840724234308
 10
186.7318156416332
 20
-266.0524790706211
 10
193.7085041221822
 20
-267.0909187764676
 10
197.7163886033673
 20
-264.5689936841616
450
        0
451
        0
460
0.0
461
0.0
452
        0
462
1.0
453
        2
463
0.0
 63
     5
421
      255
463
1.0
 63
     2
421
 16776960
470
LINEAR
1001
GradientColor1ACI
1070
     5
1001
GradientColor2ACI
1070
     2
1001
ACAD
1010
0.0
1020
0.0
1030
0.0
  0
HATCH
  5
2D
330
2
100
AcDbEntity
  8
0_FÜLL_blau
100
AcDbHatch
 10
0.0
 20
0.0
 30
0.0
210
0.0
220
0.0
230
1.0
  2
SOLID
 70
     1
 71
     0
 91
        1
 92
        5
 93
       14
 72
     4
 94
        3
 73
     0
 74
     0
 95
        8
 96
        4
 40
0.0
 40
0.0
 40
0.0
 40
0.0
 40
1.0
 40
1.0
 40
1.0
 40
1.0
 10
157.4348119247627
 20
-264.6594293959554
 10
157.4348119247627
 20
-264.5394293959555
 10
157.5948119247625
 20
-264.4994293959556
 10
157.6948119247624
 20
-264.4994293959556
 97
        0
 72
     4
 94
        3
 73
     0
 74
     0
 95
        8
 96
        4
 40
0.0
 40
0.0
 40
0.0
 40
0.0
 40
1.0
 40
1.0
 40
1.0
 40
1.0
 10
157.6948119247624
 20
-264.4994293959556
 10
157.8348119247623
 20
-264.4994293959556
 10
158.0148119247626
 20
-264.5394293959555
 10
158.1348119247625
 20
-264.6094293959557
 97
        0
 72
     1
 10
158.1348119247625
 20
-264.6094293959557
 11
158.4148119247627
 21
-264.079429395956
 72
     4
 94
        3
 73
     0
 74
     0
 95
        8
 96
        4
 40
0.0
 40
0.0
 40
0.0
 40
0.0
 40
1.0
 40
1.0
 40
1.0
 40
1.0
 10
158.4148119247627
 20
-264.0794293959555
 10
158.1748119247625
 20
-263.9694293959554
 10
157.9148119247627
 20
-263.9294293959554
 10
157.6448119247627
 20
-263.9294293959554
 97
        0
 72
     4
 94
        3
 73
     0
 74
     0
 95
        8
 96
        4
 40
0.0
 40
0.0
 40
0.0
 40
0.0
 40
1.0
 40
1.0
 40
1.0
 40
1.0
 10
157.6448119247627
 20
-263.9294293959554
 10
157.1348119247625
 20
-263.9294293959554
 10
156.6148119247625
 20
-264.1894293959556
 10
156.6148119247625
 20
-264.7594293959553
 97
        0
 72
     4
 94
        3
 73
     0
 74
     0
 95
        8
 96
        4
 40
0.0
 40
0.0
 40
0.0
 40
0.0
 40
1.0
 40
1.0
 40
1.0
 40
1.0
 10
156.6148119247625
 20
-264.7594293959553
 10
156.6148119247625
 20
-265.1794293959554
 10
156.8748119247627
 20
-265.3094293959555
 10
157.1348119247625
 20
-265.3794293959553
 97
        0
 72
     4
 94
        3
 73
     0
 74
     0
 95
        8
 96
        4
 40
0.0
 40
0.0
 40
0.0
 40
0.0
 40
1.0
 40
1.0
 40
1.0
 40
1.0
 10
157.1348119247625
 20
-265.3794293959553
 10
157.3948119247627
 20
-265.4494293959554
 10
157.6548119247625
 20
-265.4494293959554
 10
157.6548119247625
 20
-265.6394293959555
 97
        0
 72
     4
 94
        3
 73
     0
 74
     0
 95
        8
 96
        4
 40
0.0
 40
0.0
 40
0.0
 40
0.0
 40
1.0
 40
1.0
 40
1.0
 40
1.0
 10
157.6548119247625
 20
-265.6394293959555
 10
157.6548119247625
 20
-265.7694293959556
 10
157.4948119247626
 20
-265.8194293959557
 10
157.3948119247627
 20
-265.8194293959557
 97
        0
 72
     4
 94
        3
 73
     0
 74
     0
 95
        8
 96
        4
 40
0.0
 40
0.0
 40
0.0
 40
0.0
 40
1.0
 40
1.0
 40
1.0
 40
1.0
 10
157.3948119247627
 20
-265.8194293959557
 10
157.1948119247624
 20
-265.8194293959557
 10
156.9048119247625
 20
-265.6994293959554
 10
156.7348119247624
 20
-265.5794293959555
 97
        0
 72
     1
 10
156.7348119247624
 20
-265.5794293959555
 11
156.4348119247622
 21
-266.1594293959559
 72
     4
 94
        3
 73
     0
 74
     0
 95
        8
 96
        4
 40
0.0
 40
0.0
 40
0.0
 40
0.0
 40
1.0
 40
1.0
 40
1.0
 40
1.0
 10
156.4348119247627
 20
-266.1594293959554
 10
156.7148119247624
 20
-266.3294293959555
 10
157.0448119247624
 20
-266.4294293959554
 10
157.3848119247625
 20
-266.4294293959554
 97
        0
 72
     4
 94
        3
 73
     0
 74
     0
 95
        8
 96
        4
 40
0.0
 40
0.0
 40
0.0
 40
0.0
 40
1.0
 40
1.0
 40
1.0
 40
1.0
 10
157.3848119247625
 20
-266.4294293959554
 10
157.9248119247625
 20
-266.4294293959554
 10
158.4848119247624
 20
-266.1694293959552
 10
158.4848119247624
 20
-265.5494293959553
 97
        0
 72
     4
 94
        3
 73
     0
 74
     0
 95
        8
 96
        4
 40
0.0
 40
0.0
 40
0.0
 40
0.0
 40
1.0
 40
1.0
 40
1.0
 40
1.0
 10
158.4848119247624
 20
-265.5494293959553
 10
158.4848119247624
 20
-265.1194293959555
 10
158.1948119247624
 20
-264.9394293959556
 10
157.8048119247626
 20
-264.8594293959557
 97
        0
 72
     4
 94
        3
 73
     0
 74
     0
 95
        8
 96
        4
 40
0.0
 40
0.0
 40
0.0
 40
0.0
 40
1.0
 40
1.0
 40
1.0
 40
1.0
 10
157.8048119247626
 20
-264.8594293959557
 10
157.6948119247624
 20
-264.8394293959553
 10
157.4348119247627
 20
-264.8194293959558
 10
157.4348119247627
 20
-264.6594293959554
 97
        0
 97
        0
 75
     1
 76
     1
 47
0.0113905381798842
 98
       19
 10
164.0498527883448
 20
-264.4229613623782
 10
177.5969488277212
 20
-265.0720783408486
 10
177.5969488277212
 20
-265.0720783408486
 10
159.7815898654537
 20
-264.5620579039613
 10
157.0443348940045
 20
-264.7011544455443
 10
155.83808646176
 20
-264.8402509871274
 10
155.5597203525983
 20
-263.2174575708221
 10
152.4049176296432
 20
-264.3765956329328
 10
149.574874425886
 20
-264.3765956329328
 10
149.574874425886
 20
-264.3765956329328
 10
145.167428448414
 20
-264.6084236334066
 10
143.5900270869367
 20
-264.5620579039613
 10
143.5900270869367
 20
-264.5620579039613
 10
140.2032530770923
 20
-264.5620579039613
 10
140.2032530770923
 20
-264.5620579039613
 10
144.4715159999834
 20
-269.3840724234308
 10
186.7318156416332
 20
-266.0524790706211
 10
193.7085041221822
 20
-267.0909187764676
 10
197.7163886033673
 20
-264.5689936841616
450
        0
451
        0
460
0.0
461
0.0
452
        0
462
1.0
453
        2
463
0.0
 63
     5
421
      255
463
1.0
 63
     2
421
 16776960
470
LINEAR
1001
GradientColor1ACI
1070
     5
1001
GradientColor2ACI
1070
     2
1001
ACAD
1010
0.0
1020
0.0
1030
0.0
  0
HATCH
  5
2E
330
2
100
AcDbEntity
  8
0_FÜLL_blau
100
AcDbHatch
 10
0.0
 20
0.0
 30
0.0
210
0.0
220
0.0
230
1.0
  2
SOLID
 70
     1
 71
     0
 91
        1
 92
        7
 72
     0
 73
     1
 93
       12
 10
160.3348119247623
 20
-264.0094293959553
 10
159.8648119247625
 20
-264.0094293959553
 10
159.8648119247625
 20
-263.2994293959553
 10
159.0348119247626
 20
-263.2994293959553
 10
159.0348119247626
 20
-264.0094293959553
 10
158.7648119247626
 20
-264.0094293959553
 10
158.7648119247626
 20
-264.6894293959556
 10
159.0348119247626
 20
-264.6894293959556
 10
159.0348119247626
 20
-266.3494293959555
 10
159.8648119247625
 20
-266.3494293959555
 10
159.8648119247625
 20
-264.6894293959556
 10
160.3348119247623
 20
-264.6894293959556
 97
        0
 75
     1
 76
     1
 47
0.0113905381798842
 98
       19
 10
164.0498527883448
 20
-264.4229613623782
 10
177.5969488277212
 20
-265.0720783408486
 10
177.5969488277212
 20
-265.0720783408486
 10
159.7815898654537
 20
-264.5620579039613
 10
157.0443348940045
 20
-264.7011544455443
 10
155.83808646176
 20
-264.8402509871274
 10
155.5597203525983
 20
-263.2174575708221
 10
152.4049176296432
 20
-264.3765956329328
 10
149.574874425886
 20
-264.3765956329328
 10
149.574874425886
 20
-264.3765956329328
 10
145.167428448414
 20
-264.6084236334066
 10
143.5900270869367
 20
-264.5620579039613
 10
143.5900270869367
 20
-264.5620579039613
 10
140.2032530770923
 20
-264.5620579039613
 10
140.2032530770923
 20
-264.5620579039613
 10
144.4715159999834
 20
-269.3840724234308
 10
186.7318156416332
 20
-266.0524790706211
 10
193.7085041221822
 20
-267.0909187764676
 10
197.7163886033673
 20
-264.5689936841616
450
        0
451
        0
460
0.0
461
0.0
452
        0
462
1.0
453
        2
463
0.0
 63
     5
421
      255
463
1.0
 63
     2
421
 16776960
470
LINEAR
1001
GradientColor1ACI
1070
     5
1001
GradientColor2ACI
1070
     2
1001
ACAD
1010
0.0
1020
0.0
1030
0.0
  0
HATCH
  5
2F
330
2
100
AcDbEntity
  8
0_FÜLL_blau
100
AcDbHatch
 10
0.0
 20
0.0
 30
0.0
210
0.0
220
0.0
230
1.0
  2
SOLID
 70
     1
 71
     0
 91
        2
 92
        5
 93
        9
 72
     1
 10
183.7748119247624
 20
-263.9894293959558
 11
181.0848119247623
 21
-263.9894293959558
 72
     1
 10
181.0848119247623
 20
-263.9894293959558
 11
181.0848119247623
 21
-264.9994293959561
 72
     4
 94
        3
 73
     0
 74
     0
 95
        8
 96
        4
 40
0.0
 40
0.0
 40
0.0
 40
0.0
 40
1.0
 40
1.0
 40
1.0
 40
1.0
 10
181.0848119247623
 20
-264.9994293959556
 10
180.4048119247625
 20
-264.1594293959554
 10
179.6948119247624
 20
-263.7994293959553
 10
178.6048119247628
 20
-263.7494293959556
 97
        0
 72
     4
 94
        3
 73
     0
 74
     0
 95
        8
 96
        4
 40
0.0
 40
0.0
 40
0.0
 40
0.0
 40
1.0
 40
1.0
 40
1.0
 40
1.0
 10
178.6048119247628
 20
-263.7494293959556
 10
176.5448119247623
 20
-263.6594293959555
 10
175.0148119247626
 20
-265.6594293959555
 10
175.1048119247627
 20
-267.7194293959554
 97
        0
 72
     4
 94
        3
 73
     0
 74
     0
 95
        8
 96
        4
 40
0.0
 40
0.0
 40
0.0
 40
0.0
 40
1.0
 40
1.0
 40
1.0
 40
1.0
 10
175.1048119247627
 20
-267.7194293959554
 10
175.1948119247624
 20
-269.6894293959557
 10
176.6648119247627
 20
-271.3794293959552
 10
178.6448119247627
 20
-271.3394293959553
 97
        0
 72
     4
 94
        3
 73
     0
 74
     0
 95
        8
 96
        4
 40
0.0
 40
0.0
 40
0.0
 40
0.0
 40
1.0
 40
1.0
 40
1.0
 40
1.0
 10
178.6448119247627
 20
-271.3394293959553
 10
179.6848119247627
 20
-271.3294293959555
 10
180.3648119247625
 20
-271.0294293959558
 10
181.0848119247623
 20
-270.2794293959558
 97
        0
 72
     1
 10
181.0848119247623
 20
-270.2794293959558
 11
181.0848119247623
 21
-271.1394293959559
 72
     1
 10
181.0848119247623
 20
-271.1394293959555
 11
183.7748119247624
 21
-271.1394293959555
 72
     1
 10
183.7748119247624
 20
-271.1394293959555
 11
183.7748119247624
 21
-263.9894293959558
 97
        0
 92
       20
 93
        5
 72
     4
 94
        3
 73
     0
 74
     0
 95
        8
 96
        4
 40
0.0
 40
0.0
 40
0.0
 40
0.0
 40
1.0
 40
1.0
 40
1.0
 40
1.0
 10
178.0848119247623
 20
-267.6294293959553
 10
178.0748119247625
 20
-266.7594293959553
 10
178.7648119247626
 20
-265.9894293959558
 10
179.6348119247625
 20
-266.0194293959555
 97
        0
 72
     4
 94
        3
 73
     0
 74
     0
 95
        8
 96
        4
 40
0.0
 40
0.0
 40
0.0
 40
0.0
 40
1.0
 40
1.0
 40
1.0
 40
1.0
 10
179.6348119247625
 20
-266.0194293959555
 10
180.4048119247625
 20
-266.0394293959555
 10
181.0048119247624
 20
-266.6094293959557
 10
181.0748119247626
 20
-267.3994293959557
 97
        0
 72
     4
 94
        3
 73
     0
 74
     0
 95
        8
 96
        4
 40
0.0
 40
0.0
 40
0.0
 40
0.0
 40
0.99999
 40
0.99999
 40
0.99999
 40
0.99999
 10
181.0748119247744
 20
-267.3994293960184
 10
181.0748127247536
 20
-267.3994335959595
 10
181.1148114247624
 20
-267.6094318959556
 10
181.0648119247623
 20
-267.8594293959557
 97
        0
 72
     4
 94
        3
 73
     0
 74
     0
 95
        8
 96
        4
 40
0.0
 40
0.0
 40
0.0
 40
0.0
 40
1.0
 40
1.0
 40
1.0
 40
1.0
 10
181.0648119247623
 20
-267.8594293959557
 10
180.9148119247627
 20
-268.5894293959553
 10
180.4048119247625
 20
-269.1594293959554
 10
179.6948119247624
 20
-269.1894293959556
 97
        0
 72
     4
 94
        3
 73
     0
 74
     0
 95
        8
 96
        4
 40
0.0
 40
0.0
 40
0.0
 40
0.0
 40
1.0
 40
1.0
 40
1.0
 40
1.0
 10
179.6948119247624
 20
-269.1894293959556
 10
178.8448119247625
 20
-269.2094293959552
 10
178.0948119247625
 20
-268.4994293959556
 10
178.0848119247623
 20
-267.6294293959553
 97
        0
 97
        0
 75
     1
 76
     1
 47
0.0113905381798842
 98
       19
 10
164.0498527883448
 20
-264.4229613623782
 10
177.5969488277212
 20
-265.0720783408486
 10
177.5969488277212
 20
-265.0720783408486
 10
159.7815898654537
 20
-264.5620579039613
 10
157.0443348940045
 20
-264.7011544455443
 10
155.83808646176
 20
-264.8402509871274
 10
155.5597203525983
 20
-263.2174575708221
 10
152.4049176296432
 20
-264.3765956329328
 10
149.574874425886
 20
-264.3765956329328
 10
149.574874425886
 20
-264.3765956329328
 10
145.167428448414
 20
-264.6084236334066
 10
143.5900270869367
 20
-264.5620579039613
 10
143.5900270869367
 20
-264.5620579039613
 10
140.2032530770923
 20
-264.5620579039613
 10
140.2032530770923
 20
-264.5620579039613
 10
144.4715159999834
 20
-269.3840724234308
 10
186.7318156416332
 20
-266.0524790706211
 10
193.7085041221822
 20
-267.0909187764676
 10
197.7163886033673
 20
-264.5689936841616
450
        0
451
        0
460
0.0
461
0.0
452
        0
462
1.0
453
        2
463
0.0
 63
     5
421
      255
463
1.0
 63
     2
421
 16776960
470
LINEAR
1001
GradientColor1ACI
1070
     5
1001
GradientColor2ACI
1070
     2
1001
ACAD
1010
0.0
1020
0.0
1030
0.0
  0
HATCH
  5
30
330
2
100
AcDbEntity
  8
0_KREIS
100
AcDbHatch
 10
0.0
 20
0.0
 30
0.0
210
0.0
220
0.0
230
1.0
  2
SOLID
 70
     1
 71
     1
 91
        1
 92
        7
 72
     1
 73
     1
 93
        2
 10
109.9460043741601
 20
-39.67050823255825
 42
1.0
 10
111.24600437416
 20
-39.67050823255825
 42
1.0
 97
        1
330
32
 75
     1
 76
     1
 47
0.0197071038192871
 98
        1
 10
110.6479734514881
 20
-39.42563865508903
450
        0
451
        0
460
0.0
461
0.0
452
        0
462
1.0
453
        2
463
0.0
 63
     5
421
      255
463
1.0
 63
     2
421
 16776960
470
LINEAR
1001
GradientColor1ACI
1070
     5
1001
GradientColor2ACI
1070
     2
1001
ACAD
1010
0.0
1020
0.0
1030
0.0
  0
CIRCLE
  5
32
102
{ACAD_REACTORS
330
30
102
}
330
2
100
AcDbEntity
  8
0_KREIS
100
AcDbCircle
 10
110.5960043741601
 20
-39.67050823255825
 30
0.0
 40
0.65
  0
HATCH
  5
33
330
2
100
AcDbEntity
  8
0_FÜLLFL_grau1
100
AcDbHatch
 10
0.0
 20
0.0
 30
0.0
210
0.0
220
0.0
230
1.0
  2
SOLID
 70
     1
 71
     0
 91
        1
 92
        1
 93
        6
 72
     1
 10
67.61770990693911
 20
-22.43515488973783
 11
115.3347089857013
 21
-22.4351548897376
 72
     1
 10
115.3347089857013
 20
-22.4351548897376
 11
70.30071082817674
 21
-22.4351548897376
 72
     1
 10
70.30071082817674
 20
-22.4351548897376
 11
58.61770990693923
 21
-22.43515488973783
 72
     1
 10
58.61770990693923
 20
-22.43515488973783
 11
58.61770990693923
 21
-193.5906735395427
 72
     1
 10
58.61770990693923
 20
-193.5906735395427
 11
67.61770990693911
 21
-193.5906735395427
 72
     1
 10
67.61770990693911
 20
-193.5906735395427
 11
67.61770990693911
 21
-22.43515488973788
 97
        0
 75
     1
 76
     1
 98
        1
 10
94.0791034603785
 20
-46.26899445003444
450
        0
451
        0
460
0.0
461
0.0
452
        0
462
1.0
453
        2
463
0.0
 63
     5
421
      255
463
1.0
 63
     2
421
 16776960
470
LINEAR
1001
GradientColor1ACI
1070
     5
1001
GradientColor2ACI
1070
     2
1001
ACAD
1010
0.0
1020
0.0
1030
0.0
  0
HATCH
  5
35
330
2
100
AcDbEntity
  8
0_FARBAN
 62
   254
420
 13619407
430
RAL CLASSIC$RAL 7047
100
AcDbHatch
 10
0.0
 20
0.0
 30
0.0
210
0.0
220
0.0
230
1.0
  2
SOLID
 70
     1
 71
     0
 91
        1
 92
        1
 93
        4
 72
     1
 10
142.4440763980725
 20
-193.5906929577689
 11
142.4440763980726
 21
-22.43513547151164
 72
     1
 10
142.4440763980726
 20
-22.43513547151163
 11
140.4713572132991
 21
-22.43519372619046
 72
     1
 10
140.4713572132991
 20
-22.43519372619046
 11
140.4713572132991
 21
-193.5906735395427
 72
     1
 10
140.4713572132991
 20
-193.5906735395427
 11
142.4440763980726
 21
-193.5906929577689
 97
        0
 75
     1
 76
     1
 98
        1
 10
186.7147548241962
 20
-96.04975501249244
450
        0
451
        0
460
0.0
461
0.0
452
        0
462
1.0
453
        2
463
0.0
 63
     5
421
      255
463
1.0
 63
     2
421
 16776960
470
LINEAR
1001
GradientColor1ACI
1070
     5
1001
GradientColor2ACI
1070
     2
1001
ACAD
1010
0.0
1020
0.0
1030
0.0
  0
HATCH
  5
38
330
2
100
AcDbEntity
  8
0_KREIS
100
AcDbHatch
 10
0.0
 20
0.0
 30
0.0
210
0.0
220
0.0
230
1.0
  2
SOLID
 70
     1
 71
     1
 91
        1
 92
        7
 72
     1
 73
     1
 93
        2
 10
103.563050634499
 20
-76.92571373823769
 42
1.0
 10
104.863050634499
 20
-76.92571373823769
 42
1.0
 97
        1
330
39
 75
     1
 76
     1
 47
0.0197071038192871
 98
        1
 10
104.2650197118271
 20
-76.68084416076847
450
        0
451
        0
460
0.0
461
0.0
452
        0
462
1.0
453
        2
463
0.0
 63
     5
421
      255
463
1.0
 63
     2
421
 16776960
470
LINEAR
1001
GradientColor1ACI
1070
     5
1001
GradientColor2ACI
1070
     2
1001
ACAD
1010
0.0
1020
0.0
1030
0.0
  0
CIRCLE
  5
39
102
{ACAD_REACTORS
330
38
102
}
330
2
100
AcDbEntity
  8
0_KREIS
100
AcDbCircle
 10
104.213050634499
 20
-76.92571373823769
 30
0.0
 40
0.65
  0
HATCH
  5
3A
330
2
100
AcDbEntity
  8
0_FÜLLFL_grau1
100
AcDbHatch
 10
0.0
 20
0.0
 30
0.0
210
0.0
220
0.0
230
1.0
  2
SOLID
 70
     1
 71
     0
 91
        1
 92
        1
 93
        6
 72
     1
 10
118.017709906939
 20
-145.634528377909
 11
67.61770990693911
 21
-145.634528377909
 72
     1
 10
67.61770990693911
 20
-145.634528377909
 11
67.61770990693911
 21
-190.951527456671
 72
     1
 10
67.61770990693911
 20
-190.951527456671
 11
67.61770990693911
 21
-193.5976585890638
 72
     1
 10
67.61770990693911
 20
-193.5976585890638
 11
118.0177099069392
 21
-193.6345283779095
 72
     1
 10
118.0177099069392
 20
-193.6345283779095
 11
118.017709906939
 21
-190.9515274566719
 72
     1
 10
118.017709906939
 20
-190.9515274566719
 11
118.017709906939
 21
-145.6345283779095
 97
        0
 75
     1
 76
     1
 98
        1
 10
94.0791034603785
 20
-169.4683679382059
450
        0
451
        0
460
0.0
461
0.0
452
        0
462
1.0
453
        2
463
0.0
 63
     5
421
      255
463
1.0
 63
     2
421
 16776960
470
LINEAR
1001
GradientColor1ACI
1070
     5
1001
GradientColor2ACI
1070
     2
1001
ACAD
1010
0.0
1020
0.0
1030
0.0
  0
HATCH
  5
3B
330
2
100
AcDbEntity
  8
0_KREIS
100
AcDbHatch
 10
0.0
 20
0.0
 30
0.0
210
0.0
220
0.0
230
1.0
  2
SOLID
 70
     1
 71
     1
 91
        1
 92
        7
 72
     1
 73
     1
 93
        2
 10
91.84833648962046
 20
-65.04261803444099
 42
1.0
 10
93.14833648962041
 20
-65.04261803444099
 42
1.0
 97
        1
330
3C
 75
     1
 76
     1
 47
0.0197071038192871
 98
        1
 10
92.55030556694849
 20
-64.79774845697177
450
        0
451
        0
460
0.0
461
0.0
452
        0
462
1.0
453
        2
463
0.0
 63
     5
421
      255
463
1.0
 63
     2
421
 16776960
470
LINEAR
1001
GradientColor1ACI
1070
     5
1001
GradientColor2ACI
1070
     2
1001
ACAD
1010
0.0
1020
0.0
1030
0.0
  0
CIRCLE
  5
3C
102
{ACAD_REACTORS
330
3B
102
}
330
2
100
AcDbEntity
  8
0_KREIS
100
AcDbCircle
 10
92.49833648962043
 20
-65.04261803444099
 30
0.0
 40
0.65
  0
HATCH
  5
3D
330
2
100
AcDbEntity
  8
0_KREIS
100
AcDbHatch
 10
0.0
 20
0.0
 30
0.0
210
0.0
220
0.0
230
1.0
  2
SOLID
 70
     1
 71
     1
 91
        1
 92
        7
 72
     1
 73
     1
 93
        2
 10
132.314628882998
 20
-100.8360803436642
 42
1.0
 10
133.6146288829979
 20
-100.8360803436642
 42
1.0
 97
        1
330
3E
 75
     1
 76
     1
 47
0.0197071038192871
 98
        1
 10
133.016597960326
 20
-100.591210766195
450
        0
451
        0
460
0.0
461
0.0
452
        0
462
1.0
453
        2
463
0.0
 63
     5
421
      255
463
1.0
 63
     2
421
 16776960
470
LINEAR
1001
GradientColor1ACI
1070
     5
1001
GradientColor2ACI
1070
     2
1001
ACAD
1010
0.0
1020
0.0
1030
0.0
  0
CIRCLE
  5
3E
102
{ACAD_REACTORS
330
3D
102
}
330
2
100
AcDbEntity
  8
0_KREIS
100
AcDbCircle
 10
132.964628882998
 20
-100.8360803436642
 30
0.0
 40
0.65
  0
HATCH
  5
3F
330
2
100
AcDbEntity
  8
0_KREIS
100
AcDbHatch
 10
0.0
 20
0.0
 30
0.0
210
0.0
220
0.0
230
1.0
  2
SOLID
 70
     1
 71
     1
 91
        1
 92
        7
 72
     1
 73
     1
 93
        2
 10
121.6746978989249
 20
-88.85001790459211
 42
1.0
 10
122.9746978989249
 20
-88.85001790459211
 42
1.0
 97
        1
330
40
 75
     1
 76
     1
 47
0.0197071038192871
 98
        1
 10
122.3766669762529
 20
-88.6051483271229
450
        0
451
        0
460
0.0
461
0.0
452
        0
462
1.0
453
        2
463
0.0
 63
     5
421
      255
463
1.0
 63
     2
421
 16776960
470
LINEAR
1001
GradientColor1ACI
1070
     5
1001
GradientColor2ACI
1070
     2
1001
ACAD
1010
0.0
1020
0.0
1030
0.0
  0
CIRCLE
  5
40
102
{ACAD_REACTORS
330
3F
102
}
330
2
100
AcDbEntity
  8
0_KREIS
100
AcDbCircle
 10
122.3246978989249
 20
-88.85001790459211
 30
0.0
 40
0.65
  0
HATCH
  5
41
330
2
100
AcDbEntity
  8
0_KONTUR
 62
   254
420
 15724739
100
AcDbHatch
 10
0.0
 20
0.0
 30
0.0
210
0.0
220
0.0
230
1.0
  2
SOLID
 70
     1
 71
     0
 91
        1
 92
        1
 93
        4
 72
     1
 10
47.66415008469787
 20
-22.43515488973783
 11
58.61770990693911
 21
-22.43515488973783
 72
     1
 10
58.61770990693923
 20
-22.43515488973783
 11
58.61770990693923
 21
-193.5906735395427
 72
     1
 10
58.61770990693923
 20
-193.5906735395427
 11
47.66415008469799
 21
-193.5906735395423
 72
     1
 10
47.66415008469799
 20
-193.5906735395427
 11
47.66415008469787
 21
-22.4351548897381
 97
        0
 75
     1
 76
     1
 98
        1
 10
48.61342618884224
 20
-64.04953711705146
450
        0
451
        0
460
0.0
461
0.0
452
        0
462
1.0
453
        2
463
0.0
 63
     5
421
      255
463
1.0
 63
     2
421
 16776960
470
LINEAR
1001
GradientColor1ACI
1070
     5
1001
GradientColor2ACI
1070
     2
1001
ACAD
1010
0.0
1020
0.0
1030
0.0
  0
HATCH
  5
42
330
2
100
AcDbEntity
  8
0_FARBAN
 62
   254
420
 13619407
430
RAL CLASSIC$RAL 7047
100
AcDbHatch
 10
0.0
 20
0.0
 30
0.0
210
0.0
220
0.0
230
1.0
  2
SOLID
 70
     1
 71
     0
 91
        1
 92
        1
 93
        4
 72
     1
 10
43.51413155061457
 20
-193.5906735395427
 11
43.51413155061446
 21
-22.43511605328544
 72
     1
 10
43.51413155061446
 20
-22.43511605328543
 11
45.16406260057929
 21
-22.43519372619046
 72
     1
 10
45.16406260057929
 20
-22.43519372619046
 11
45.16406260057929
 21
-193.5906735395427
 72
     1
 10
45.16406260057929
 20
-193.5906735395427
 11
43.51413155061457
 21
-193.5906735395427
 97
        0
 75
     1
 76
     1
 98
        1
 10
-1.079335010317791
 20
-96.04975501249244
450
        0
451
        0
460
0.0
461
0.0
452
        0
462
1.0
453
        2
463
0.0
 63
     5
421
      255
463
1.0
 63
     2
421
 16776960
470
LINEAR
1001
GradientColor1ACI
1070
     5
1001
GradientColor2ACI
1070
     2
1001
ACAD
1010
0.0
1020
0.0
1030
0.0
  0
HATCH
  5
43
330
2
100
AcDbEntity
  8
0_FÜLLFL_grau1
100
AcDbHatch
 10
0.0
 20
0.0
 30
0.0
210
0.0
220
0.0
230
1.0
  2
SOLID
 70
     1
 71
     0
 91
        1
 92
        1
 93
        6
 72
     1
 10
118.0177099069388
 20
-22.43515488973783
 11
67.617709906939
 21
-22.43515488973783
 72
     1
 10
67.617709906939
 20
-22.43515488973783
 11
67.617709906939
 21
-67.75215396849974
 72
     1
 10
67.617709906939
 20
-67.75215396849974
 11
67.617709906939
 21
-70.39828510089257
 72
     1
 10
67.617709906939
 20
-70.39828510089257
 11
118.0177099069391
 21
-70.43515488973828
 72
     1
 10
118.0177099069391
 20
-70.43515488973828
 11
118.0177099069388
 21
-67.75215396850065
 72
     1
 10
118.0177099069388
 20
-67.75215396850065
 11
118.0177099069388
 21
-22.43515488973828
 97
        0
 75
     1
 76
     1
 98
        1
 10
94.07910346037839
 20
-46.26899445003466
450
        0
451
        0
460
0.0
461
0.0
452
        0
462
1.0
453
        2
463
0.0
 63
     5
421
      255
463
1.0
 63
     2
421
 16776960
470
LINEAR
1001
GradientColor1ACI
1070
     5
1001
GradientColor2ACI
1070
     2
1001
ACAD
1010
0.0
1020
0.0
1030
0.0
  0
HATCH
  5
44
330
2
100
AcDbEntity
  8
0_FÜLLFL_grau1
100
AcDbHatch
 10
0.0
 20
0.0
 30
0.0
210
0.0
220
0.0
230
1.0
  2
SOLID
 70
     1
 71
     0
 91
        1
 92
        1
 93
        6
 72
     1
 10
127.0177099069391
 20
-22.43515488973783
 11
174.7347089857013
 21
-22.4351548897376
 72
     1
 10
174.7347089857013
 20
-22.4351548897376
 11
129.7007108281767
 21
-22.4351548897376
 72
     1
 10
129.7007108281767
 20
-22.4351548897376
 11
118.0177099069392
 21
-22.43515488973783
 72
     1
 10
118.0177099069392
 20
-22.43515488973783
 11
118.0177099069392
 21
-193.522549148924
 72
     1
 10
118.0177099069392
 20
-193.522549148924
 11
127.0177099069391
 21
-193.5976585890638
 72
     1
 10
127.0177099069391
 20
-193.5976585890638
 11
127.0177099069391
 21
-22.43515488973788
 97
        0
 75
     1
 76
     1
 98
        1
 10
153.4791034603785
 20
-46.26899445003444
450
        0
451
        0
460
0.0
461
0.0
452
        0
462
1.0
453
        2
463
0.0
 63
     5
421
      255
463
1.0
 63
     2
421
 16776960
470
LINEAR
1001
GradientColor1ACI
1070
     5
1001
GradientColor2ACI
1070
     2
1001
ACAD
1010
0.0
1020
0.0
1030
0.0
  0
HATCH
  5
45
330
2
100
AcDbEntity
  8
0_KREIS
100
AcDbHatch
 10
0.0
 20
0.0
 30
0.0
210
0.0
220
0.0
230
1.0
  2
SOLID
 70
     1
 71
     1
 91
        1
 92
        7
 72
     1
 73
     1
 93
        2
 10
91.88264045072934
 20
-65.00423913852917
 42
1.0
 10
93.18264045072929
 20
-65.00423913852917
 42
1.0
 97
        1
330
46
 75
     1
 76
     1
 47
0.0197071038192871
 98
        1
 10
92.58460952805739
 20
-64.75936956105996
450
        0
451
        0
460
0.0
461
0.0
452
        0
462
1.0
453
        2
463
0.0
 63
     5
421
      255
463
1.0
 63
     2
421
 16776960
470
LINEAR
1001
GradientColor1ACI
1070
     5
1001
GradientColor2ACI
1070
     2
1001
ACAD
1010
0.0
1020
0.0
1030
0.0
  0
CIRCLE
  5
46
102
{ACAD_REACTORS
330
45
102
}
330
2
100
AcDbEntity
  8
0_KREIS
100
AcDbCircle
 10
92.53264045072931
 20
-65.00423913852917
 30
0.0
 40
0.65
  0
HATCH
  5
47
330
2
100
AcDbEntity
  8
0_KREIS
100
AcDbHatch
 10
0.0
 20
0.0
 30
0.0
210
0.0
220
0.0
230
1.0
  2
SOLID
 70
     1
 71
     1
 91
        1
 92
        7
 72
     1
 73
     1
 93
        2
 10
91.89106840216332
 20
-65.00118788590642
 42
1.0
 10
93.19106840216328
 20
-65.00118788590642
 42
1.0
 97
        1
330
48
 75
     1
 76
     1
 47
0.0197071038192871
 98
        1
 10
92.59303747949138
 20
-64.7563183084372
450
        0
451
        0
460
0.0
461
0.0
452
        0
462
1.0
453
        2
463
0.0
 63
     5
421
      255
463
1.0
 63
     2
421
 16776960
470
LINEAR
1001
GradientColor1ACI
1070
     5
1001
GradientColor2ACI
1070
     2
1001
ACAD
1010
0.0
1020
0.0
1030
0.0
  0
CIRCLE
  5
48
102
{ACAD_REACTORS
330
47
102
}
330
2
100
AcDbEntity
  8
0_KREIS
100
AcDbCircle
 10
92.5410684021633
 20
-65.00118788590642
 30
0.0
 40
0.65
  0
HATCH
  5
49
330
2
100
AcDbEntity
  8
0_KREIS
100
AcDbHatch
 10
0.0
 20
0.0
 30
0.0
210
0.0
220
0.0
230
1.0
  2
SOLID
 70
     1
 71
     1
 91
        1
 92
        7
 72
     1
 73
     1
 93
        2
 10
121.359386872924
 20
-88.83625750138305
 42
1.0
 10
122.6593868729239
 20
-88.83625750138305
 42
1.0
 97
        1
330
4A
 75
     1
 76
     1
 47
0.0197071038192871
 98
        1
 10
122.061355950252
 20
-88.59138792391384
450
        0
451
        0
460
0.0
461
0.0
452
        0
462
1.0
453
        2
463
0.0
 63
     5
421
      255
463
1.0
 63
     2
421
 16776960
470
LINEAR
1001
GradientColor1ACI
1070
     5
1001
GradientColor2ACI
1070
     2
1001
ACAD
1010
0.0
1020
0.0
1030
0.0
  0
CIRCLE
  5
4A
102
{ACAD_REACTORS
330
49
102
}
330
2
100
AcDbEntity
  8
0_KREIS
100
AcDbCircle
 10
122.0093868729239
 20
-88.83625750138305
 30
0.0
 40
0.65
  0
HATCH
  5
4B
330
2
100
AcDbEntity
  8
0_KREIS
100
AcDbHatch
 10
0.0
 20
0.0
 30
0.0
210
0.0
220
0.0
230
1.0
  2
SOLID
 70
     1
 71
     1
 91
        1
 92
        7
 72
     1
 73
     1
 93
        2
 10
140.7438258363717
 20
-138.060253196363
 42
1.0
 10
142.0438258363716
 20
-138.060253196363
 42
1.0
 97
        1
330
4C
 75
     1
 76
     1
 47
0.0197071038192871
 98
        1
 10
141.4457949136997
 20
-137.8153836188938
450
        0
451
        0
460
0.0
461
0.0
452
        0
462
1.0
453
        2
463
0.0
 63
     5
421
      255
463
1.0
 63
     2
421
 16776960
470
LINEAR
1001
GradientColor1ACI
1070
     5
1001
GradientColor2ACI
1070
     2
1001
ACAD
1010
0.0
1020
0.0
1030
0.0
  0
CIRCLE
  5
4C
102
{ACAD_REACTORS
330
4B
102
}
330
2
100
AcDbEntity
  8
0_KREIS
100
AcDbCircle
 10
141.3938258363716
 20
-138.060253196363
 30
0.0
 40
0.65
  0
POLYLINE
  5
4D
330
2
100
AcDbEntity
  8
0_LOGO
370
     0
100
AcDb2dPolyline
 66
     1
 10
0.0
 20
0.0
 30
0.0
  0
VERTEX
  5
4E
330
4D
100
AcDbEntity
  8
0_LOGO
370
     0
100
AcDbVertex
100
AcDb2dVertex
 10
23.49695501931432
 20
-1.369004905550653
 30
0.0
  0
VERTEX
  5
4F
330
4D
100
AcDbEntity
  8
0_LOGO
370
     0
100
AcDbVertex
100
AcDb2dVertex
 10
6.934313964426777
 20
-1.369004905550653
 30
0.0
  0
VERTEX
  5
50
330
4D
100
AcDbEntity
  8
0_LOGO
370
     0
100
AcDbVertex
100
AcDb2dVertex
 10
6.934313964426777
 20
14.63100440853615
 30
0.0
  0
VERTEX
  5
51
330
4D
100
AcDbEntity
  8
0_LOGO
370
     0
100
AcDbVertex
100
AcDb2dVertex
 10
23.49695501931432
 20
14.63100440853615
 30
0.0
  0
VERTEX
  5
52
330
4D
100
AcDbEntity
  8
0_LOGO
370
     0
100
AcDbVertex
100
AcDb2dVertex
 10
23.49695501931432
 20
-1.369121455519533
 30
0.0
  0
SEQEND
  5
53
330
4D
100
AcDbEntity
  8
0_LOGO
370
     0
  0
LWPOLYLINE
  5
54
330
2
100
AcDbEntity
  8
0_HILFE
100
AcDbPolyline
 90
        4
 70
     1
 43
0.0
 10
6.934313964426777
 20
25.06052174594713
 10
6.934313964426777
 20
-271.9394782540529
 10
218.3082474946173
 20
-271.9394782540529
 10
218.3082474946173
 20
25.06052174594713
  0
LINE
  5
59
330
2
100
AcDbEntity
  8
0_LOGO
100
AcDbLine
 10
60.29824749461771
 20
-271.9394782540529
 30
0.0
 11
57.60824749461765
 21
-271.9394782540529
 31
0.0
  0
LINE
  5
5A
330
2
100
AcDbEntity
  8
0_LOGO
100
AcDbLine
 10
55.30824749461747
 20
-271.9394782540529
 30
0.0
 11
52.62824749461763
 21
-271.9394782540529
 31
0.0
  0
LINE
  5
5B
330
2
100
AcDbEntity
  8
0_LOGO
100
AcDbLine
 10
50.40824749461783
 20
-271.9394782540529
 30
0.0
 11
47.71824749461778
 21
-271.9394782540529
 31
0.0
  0
LINE
  5
5C
330
2
100
AcDbEntity
  8
0_LOGO
100
AcDbLine
 10
38.94824749461781
 20
-271.9394782540529
 30
0.0
 11
41.63824749461785
 21
-271.9394782540529
 31
0.0
  0
LINE
  5
5D
330
2
100
AcDbEntity
  8
0_HILFE_grün
100
AcDbLine
 10
218.3082474946173
 20
-271.9394782540529
 30
0.0
 11
218.3082474946173
 21
-271.9394782540529
 31
0.0
  0
LINE
  5
5F
330
2
100
AcDbEntity
  8
0_HILFE_grün
100
AcDbLine
 10
218.3082474946173
 20
-271.9394782540529
 30
0.0
 11
218.3082474946173
 21
-271.9394782540529
 31
0.0
  0
LINE
  5
60
330
2
100
AcDbEntity
  8
0_LOGO
100
AcDbLine
 10
137.9948119247626
 20
-266.3494293959555
 30
0.0
 11
138.8248119247625
 21
-266.3494293959555
 31
0.0
  0
LINE
  5
61
330
2
100
AcDbEntity
  8
0_LOGO
100
AcDbLine
 10
138.8248119247625
 20
-266.3494293959555
 30
0.0
 11
138.8248119247625
 21
-266.0894293959553
 31
0.0
  0
SPLINE
  5
62
330
2
100
AcDbEntity
  8
0_LOGO
100
AcDbSpline
210
0.0
220
0.0
230
1.0
 70
     8
 71
     3
 72
     8
 73
     4
 74
     0
 42
0.0000001
 43
0.0000000001
 40
0.0
 40
0.0
 40
0.0
 40
0.0
 40
1.0
 40
1.0
 40
1.0
 40
1.0
 10
138.8248119247625
 20
-266.0894293959553
 30
0.0
 10
138.9848119247624
 20
-266.3194293959557
 30
0.0
 10
139.2648119247626
 20
-266.4294293959554
 30
0.0
 10
139.5448119247624
 20
-266.4294293959554
 30
0.0
  0
SPLINE
  5
63
330
2
100
AcDbEntity
  8
0_LOGO
100
AcDbSpline
210
0.0
220
0.0
230
1.0
 70
     8
 71
     3
 72
     8
 73
     4
 74
     0
 42
0.0000001
 43
0.0000000001
 40
0.0
 40
0.0
 40
0.0
 40
0.0
 40
1.0
 40
1.0
 40
1.0
 40
1.0
 10
139.5448119247624
 20
-266.4294293959554
 30
0.0
 10
140.2448119247626
 20
-266.4294293959554
 30
0.0
 10
140.7248119247626
 20
-265.8494293959555
 30
0.0
 10
140.7248119247626
 20
-265.1794293959554
 30
0.0
  0
SPLINE
  5
64
330
2
100
AcDbEntity
  8
0_LOGO
100
AcDbSpline
210
0.0
220
0.0
230
1.0
 70
     8
 71
     3
 72
     8
 73
     4
 74
     0
 42
0.0000001
 43
0.0000000001
 40
0.0
 40
0.0
 40
0.0
 40
0.0
 40
1.0
 40
1.0
 40
1.0
 40
1.0
 10
140.7248119247626
 20
-265.1794293959554
 30
0.0
 10
140.7248119247626
 20
-264.4994293959556
 30
0.0
 10
140.2448119247626
 20
-263.9294293959554
 30
0.0
 10
139.5548119247626
 20
-263.9294293959554
 30
0.0
  0
SPLINE
  5
65
330
2
100
AcDbEntity
  8
0_LOGO
100
AcDbSpline
210
0.0
220
0.0
230
1.0
 70
     8
 71
     3
 72
     8
 73
     4
 74
     0
 42
0.0000001
 43
0.0000000001
 40
0.0
 40
0.0
 40
0.0
 40
0.0
 40
1.0
 40
1.0
 40
1.0
 40
1.0
 10
139.5548119247626
 20
-263.9294293959554
 30
0.0
 10
139.2848119247626
 20
-263.9294293959554
 30
0.0
 10
139.0048119247624
 20
-264.0294293959558
 30
0.0
 10
138.8248119247625
 20
-264.2394293959558
 30
0.0
  0
LINE
  5
66
330
2
100
AcDbEntity
  8
0_LOGO
100
AcDbLine
 10
138.8248119247625
 20
-264.2394293959558
 30
0.0
 11
138.8248119247625
 21
-262.5594293959555
 31
0.0
  0
LINE
  5
67
330
2
100
AcDbEntity
  8
0_LOGO
100
AcDbLine
 10
138.8248119247625
 20
-262.5594293959555
 30
0.0
 11
137.9948119247626
 21
-262.5594293959555
 31
0.0
  0
LINE
  5
68
330
2
100
AcDbEntity
  8
0_LOGO
100
AcDbLine
 10
137.9948119247626
 20
-262.5594293959555
 30
0.0
 11
137.9948119247626
 21
-266.3494293959555
 31
0.0
  0
SPLINE
  5
69
330
2
100
AcDbEntity
  8
0_LOGO
100
AcDbSpline
210
0.0
220
0.0
230
1.0
 70
     8
 71
     3
 72
     8
 73
     4
 74
     0
 42
0.0000001
 43
0.0000000001
 40
0.0
 40
0.0
 40
0.0
 40
0.0
 40
1.0
 40
1.0
 40
1.0
 40
1.0
 10
139.3348119247623
 20
-264.6494293959557
 30
0.0
 10
139.6748119247624
 20
-264.6494293959557
 30
0.0
 10
139.8648119247625
 20
-264.8894293959555
 30
0.0
 10
139.8648119247625
 20
-265.1794293959554
 30
0.0
  0
SPLINE
  5
6A
330
2
100
AcDbEntity
  8
0_LOGO
100
AcDbSpline
210
0.0
220
0.0
230
1.0
 70
     8
 71
     3
 72
     8
 73
     4
 74
     0
 42
0.0000001
 43
0.0000000001
 40
0.0
 40
0.0
 40
0.0
 40
0.0
 40
1.0
 40
1.0
 40
1.0
 40
1.0
 10
139.8648119247625
 20
-265.1794293959554
 30
0.0
 10
139.8648119247625
 20
-265.4794293959556
 30
0.0
 10
139.6748119247624
 20
-265.7094293959552
 30
0.0
 10
139.3348119247623
 20
-265.7094293959552
 30
0.0
  0
SPLINE
  5
6B
330
2
100
AcDbEntity
  8
0_LOGO
100
AcDbSpline
210
0.0
220
0.0
230
1.0
 70
     8
 71
     3
 72
     8
 73
     4
 74
     0
 42
0.0000001
 43
0.0000000001
 40
0.0
 40
0.0
 40
0.0
 40
0.0
 40
1.0
 40
1.0
 40
1.0
 40
1.0
 10
139.3348119247623
 20
-265.7094293959552
 30
0.0
 10
138.9948119247626
 20
-265.7094293959552
 30
0.0
 10
138.7948119247623
 20
-265.4794293959556
 30
0.0
 10
138.7948119247623
 20
-265.1794293959554
 30
0.0
  0
SPLINE
  5
6C
330
2
100
AcDbEntity
  8
0_LOGO
100
AcDbSpline
210
0.0
220
0.0
230
1.0
 70
     8
 71
     3
 72
     8
 73
     4
 74
     0
 42
0.0000001
 43
0.0000000001
 40
0.0
 40
0.0
 40
0.0
 40
0.0
 40
1.0
 40
1.0
 40
1.0
 40
1.0
 10
138.7948119247623
 20
-265.1794293959554
 30
0.0
 10
138.7948119247623
 20
-264.8894293959555
 30
0.0
 10
138.9948119247626
 20
-264.6494293959557
 30
0.0
 10
139.3348119247623
 20
-264.6494293959557
 30
0.0
  0
SPLINE
  5
6D
330
2
100
AcDbEntity
  8
0_LOGO
100
AcDbSpline
210
0.0
220
0.0
230
1.0
 70
     8
 71
     3
 72
     8
 73
     4
 74
     0
 42
0.0000001
 43
0.0000000001
 40
0.0
 40
0.0
 40
0.0
 40
0.0
 40
1.0
 40
1.0
 40
1.0
 40
1.0
 10
142.4948119247626
 20
-264.6494293959557
 30
0.0
 10
142.8348119247623
 20
-264.6494293959557
 30
0.0
 10
143.0348119247626
 20
-264.8894293959555
 30
0.0
 10
143.0348119247626
 20
-265.1794293959554
 30
0.0
  0
SPLINE
  5
6E
330
2
100
AcDbEntity
  8
0_LOGO
100
AcDbSpline
210
0.0
220
0.0
230
1.0
 70
     8
 71
     3
 72
     8
 73
     4
 74
     0
 42
0.0000001
 43
0.0000000001
 40
0.0
 40
0.0
 40
0.0
 40
0.0
 40
1.0
 40
1.0
 40
1.0
 40
1.0
 10
143.0348119247626
 20
-265.1794293959554
 30
0.0
 10
143.0348119247626
 20
-265.4794293959556
 30
0.0
 10
142.8348119247623
 20
-265.7094293959552
 30
0.0
 10
142.4948119247626
 20
-265.7094293959552
 30
0.0
  0
SPLINE
  5
6F
330
2
100
AcDbEntity
  8
0_LOGO
100
AcDbSpline
210
0.0
220
0.0
230
1.0
 70
     8
 71
     3
 72
     8
 73
     4
 74
     0
 42
0.0000001
 43
0.0000000001
 40
0.0
 40
0.0
 40
0.0
 40
0.0
 40
1.0
 40
1.0
 40
1.0
 40
1.0
 10
142.4948119247626
 20
-265.7094293959552
 30
0.0
 10
142.1548119247625
 20
-265.7094293959552
 30
0.0
 10
141.9648119247624
 20
-265.4794293959556
 30
0.0
 10
141.9648119247624
 20
-265.1794293959554
 30
0.0
  0
SPLINE
  5
70
330
2
100
AcDbEntity
  8
0_LOGO
100
AcDbSpline
210
0.0
220
0.0
230
1.0
 70
     8
 71
     3
 72
     8
 73
     4
 74
     0
 42
0.0000001
 43
0.0000000001
 40
0.0
 40
0.0
 40
0.0
 40
0.0
 40
1.0
 40
1.0
 40
1.0
 40
1.0
 10
141.9648119247624
 20
-265.1794293959554
 30
0.0
 10
141.9648119247624
 20
-264.8894293959555
 30
0.0
 10
142.1548119247625
 20
-264.6494293959557
 30
0.0
 10
142.4948119247626
 20
-264.6494293959557
 30
0.0
  0
LINE
  5
71
330
2
100
AcDbEntity
  8
0_LOGO
100
AcDbLine
 10
143.8348119247623
 20
-264.0094293959553
 30
0.0
 11
143.0048119247624
 21
-264.0094293959553
 31
0.0
  0
LINE
  5
72
330
2
100
AcDbEntity
  8
0_LOGO
100
AcDbLine
 10
143.0048119247624
 20
-264.0094293959553
 30
0.0
 11
143.0048119247624
 21
-264.2394293959558
 31
0.0
  0
SPLINE
  5
73
330
2
100
AcDbEntity
  8
0_LOGO
100
AcDbSpline
210
0.0
220
0.0
230
1.0
 70
     8
 71
     3
 72
     8
 73
     4
 74
     0
 42
0.0000001
 43
0.0000000001
 40
0.0
 40
0.0
 40
0.0
 40
0.0
 40
1.0
 40
1.0
 40
1.0
 40
1.0
 10
143.0048119247624
 20
-264.2394293959558
 30
0.0
 10
142.8248119247625
 20
-264.0294293959558
 30
0.0
 10
142.5448119247624
 20
-263.9294293959554
 30
0.0
 10
142.2748119247624
 20
-263.9294293959554
 30
0.0
  0
SPLINE
  5
74
330
2
100
AcDbEntity
  8
0_LOGO
100
AcDbSpline
210
0.0
220
0.0
230
1.0
 70
     8
 71
     3
 72
     8
 73
     4
 74
     0
 42
0.0000001
 43
0.0000000001
 40
0.0
 40
0.0
 40
0.0
 40
0.0
 40
1.0
 40
1.0
 40
1.0
 40
1.0
 10
142.2748119247624
 20
-263.9294293959554
 30
0.0
 10
141.5848119247623
 20
-263.9294293959554
 30
0.0
 10
141.1048119247627
 20
-264.4994293959556
 30
0.0
 10
141.1048119247627
 20
-265.1794293959554
 30
0.0
  0
SPLINE
  5
75
330
2
100
AcDbEntity
  8
0_LOGO
100
AcDbSpline
210
0.0
220
0.0
230
1.0
 70
     8
 71
     3
 72
     8
 73
     4
 74
     0
 42
0.0000001
 43
0.0000000001
 40
0.0
 40
0.0
 40
0.0
 40
0.0
 40
1.0
 40
1.0
 40
1.0
 40
1.0
 10
141.1048119247627
 20
-265.1794293959554
 30
0.0
 10
141.1048119247627
 20
-265.8494293959555
 30
0.0
 10
141.5948119247625
 20
-266.4294293959554
 30
0.0
 10
142.2848119247626
 20
-266.4294293959554
 30
0.0
  0
SPLINE
  5
76
330
2
100
AcDbEntity
  8
0_LOGO
100
AcDbSpline
210
0.0
220
0.0
230
1.0
 70
     8
 71
     3
 72
     8
 73
     4
 74
     0
 42
0.0000001
 43
0.0000000001
 40
0.0
 40
0.0
 40
0.0
 40
0.0
 40
1.0
 40
1.0
 40
1.0
 40
1.0
 10
142.2848119247626
 20
-266.4294293959554
 30
0.0
 10
142.5648119247623
 20
-266.4294293959554
 30
0.0
 10
142.8448119247625
 20
-266.3194293959557
 30
0.0
 10
142.9948119247626
 20
-266.0894293959553
 30
0.0
  0
LINE
  5
77
330
2
100
AcDbEntity
  8
0_LOGO
100
AcDbLine
 10
142.9948119247626
 20
-266.0894293959553
 30
0.0
 11
143.0048119247624
 21
-266.3494293959555
 31
0.0
  0
LINE
  5
78
330
2
100
AcDbEntity
  8
0_LOGO
100
AcDbLine
 10
143.0048119247624
 20
-266.3494293959555
 30
0.0
 11
143.8348119247623
 21
-266.3494293959555
 31
0.0
  0
LINE
  5
79
330
2
100
AcDbEntity
  8
0_LOGO
100
AcDbLine
 10
143.8348119247623
 20
-266.3494293959555
 30
0.0
 11
143.8348119247623
 21
-264.0094293959553
 31
0.0
  0
LINE
  5
7A
330
2
100
AcDbEntity
  8
0_LOGO
100
AcDbLine
 10
144.4748119247626
 20
-264.0094293959553
 30
0.0
 11
144.4748119247626
 21
-265.4194293959552
 31
0.0
  0
SPLINE
  5
7B
330
2
100
AcDbEntity
  8
0_LOGO
100
AcDbSpline
210
0.0
220
0.0
230
1.0
 70
     8
 71
     3
 72
     8
 73
     4
 74
     0
 42
0.0000001
 43
0.0000000001
 40
0.0
 40
0.0
 40
0.0
 40
0.0
 40
1.0
 40
1.0
 40
1.0
 40
1.0
 10
144.4748119247626
 20
-265.4194293959552
 30
0.0
 10
144.4748119247626
 20
-266.1894293959556
 30
0.0
 10
145.0248119247624
 20
-266.4294293959554
 30
0.0
 10
145.7248119247626
 20
-266.4294293959554
 30
0.0
  0
SPLINE
  5
7C
330
2
100
AcDbEntity
  8
0_LOGO
100
AcDbSpline
210
0.0
220
0.0
230
1.0
 70
     8
 71
     3
 72
     8
 73
     4
 74
     0
 42
0.0000001
 43
0.0000000001
 40
0.0
 40
0.0
 40
0.0
 40
0.0
 40
1.0
 40
1.0
 40
1.0
 40
1.0
 10
145.7248119247626
 20
-266.4294293959554
 30
0.0
 10
146.4248119247625
 20
-266.4294293959554
 30
0.0
 10
146.9748119247626
 20
-266.1894293959556
 30
0.0
 10
146.9748119247626
 20
-265.4194293959552
 30
0.0
  0
LINE
  5
7D
330
2
100
AcDbEntity
  8
0_LOGO
100
AcDbLine
 10
146.9748119247626
 20
-265.4194293959552
 30
0.0
 11
146.9748119247626
 21
-264.0094293959553
 31
0.0
  0
LINE
  5
7E
330
2
100
AcDbEntity
  8
0_LOGO
100
AcDbLine
 10
146.9748119247626
 20
-264.0094293959553
 30
0.0
 11
146.1448119247627
 21
-264.0094293959553
 31
0.0
  0
LINE
  5
7F
330
2
100
AcDbEntity
  8
0_LOGO
100
AcDbLine
 10
146.1448119247627
 20
-264.0094293959553
 30
0.0
 11
146.1448119247627
 21
-265.2594293959554
 31
0.0
  0
SPLINE
  5
80
330
2
100
AcDbEntity
  8
0_LOGO
100
AcDbSpline
210
0.0
220
0.0
230
1.0
 70
     8
 71
     3
 72
     8
 73
     4
 74
     0
 42
0.0000001
 43
0.0000000001
 40
0.0
 40
0.0
 40
0.0
 40
0.0
 40
1.0
 40
1.0
 40
1.0
 40
1.0
 10
146.1448119247627
 20
-265.2594293959554
 30
0.0
 10
146.1448119247627
 20
-265.5494293959553
 30
0.0
 10
146.0648119247623
 20
-265.7694293959556
 30
0.0
 10
145.7248119247626
 20
-265.7694293959556
 30
0.0
  0
SPLINE
  5
81
330
2
100
AcDbEntity
  8
0_LOGO
100
AcDbSpline
210
0.0
220
0.0
230
1.0
 70
     8
 71
     3
 72
     8
 73
     4
 74
     0
 42
0.0000001
 43
0.0000000001
 40
0.0
 40
0.0
 40
0.0
 40
0.0
 40
1.0
 40
1.0
 40
1.0
 40
1.0
 10
145.7248119247626
 20
-265.7694293959556
 30
0.0
 10
145.3848119247625
 20
-265.7694293959556
 30
0.0
 10
145.3148119247623
 20
-265.5494293959553
 30
0.0
 10
145.3148119247623
 20
-265.2594293959554
 30
0.0
  0
LINE
  5
82
330
2
100
AcDbEntity
  8
0_LOGO
100
AcDbLine
 10
145.3148119247623
 20
-265.2594293959554
 30
0.0
 11
145.3148119247623
 21
-264.0094293959553
 31
0.0
  0
LINE
  5
83
330
2
100
AcDbEntity
  8
0_LOGO
100
AcDbLine
 10
145.3148119247623
 20
-264.0094293959553
 30
0.0
 11
144.4748119247626
 21
-264.0094293959553
 31
0.0
  0
SPLINE
  5
84
330
2
100
AcDbEntity
  8
0_LOGO
100
AcDbSpline
210
0.0
220
0.0
230
1.0
 70
     8
 71
     3
 72
     8
 73
     4
 74
     0
 42
0.0000001
 43
0.0000000001
 40
0.0
 40
0.0
 40
0.0
 40
0.0
 40
1.0
 40
1.0
 40
1.0
 40
1.0
 10
148.3148119247623
 20
-264.8394293959553
 30
0.0
 10
148.3648119247625
 20
-264.5994293959555
 30
0.0
 10
148.5648119247623
 20
-264.4694293959554
 30
0.0
 10
148.8048119247626
 20
-264.4694293959554
 30
0.0
  0
SPLINE
  5
85
330
2
100
AcDbEntity
  8
0_LOGO
100
AcDbSpline
210
0.0
220
0.0
230
1.0
 70
     8
 71
     3
 72
     8
 73
     4
 74
     0
 42
0.0000001
 43
0.0000000001
 40
0.0
 40
0.0
 40
0.0
 40
0.0
 40
1.0
 40
1.0
 40
1.0
 40
1.0
 10
148.8048119247626
 20
-264.4694293959554
 30
0.0
 10
149.0248119247624
 20
-264.4694293959554
 30
0.0
 10
149.2348119247624
 20
-264.6094293959557
 30
0.0
 10
149.2748119247624
 20
-264.8394293959553
 30
0.0
  0
LINE
  5
86
330
2
100
AcDbEntity
  8
0_LOGO
100
AcDbLine
 10
149.2748119247624
 20
-264.8394293959553
 30
0.0
 11
148.3148119247623
 21
-264.8394293959553
 31
0.0
  0
SPLINE
  5
87
330
2
100
AcDbEntity
  8
0_LOGO
100
AcDbSpline
210
0.0
220
0.0
230
1.0
 70
     8
 71
     3
 72
     8
 73
     4
 74
     0
 42
0.0000001
 43
0.0000000001
 40
0.0
 40
0.0
 40
0.0
 40
0.0
 40
1.0
 40
1.0
 40
1.0
 40
1.0
 10
150.0448119247623
 20
-265.2294293959556
 30
0.0
 10
150.0448119247623
 20
-264.4294293959554
 30
0.0
 10
149.5748119247626
 20
-263.9294293959554
 30
0.0
 10
148.7648119247626
 20
-263.9294293959554
 30
0.0
  0
SPLINE
  5
88
330
2
100
AcDbEntity
  8
0_LOGO
100
AcDbSpline
210
0.0
220
0.0
230
1.0
 70
     8
 71
     3
 72
     8
 73
     4
 74
     0
 42
0.0000001
 43
0.0000000001
 40
0.0
 40
0.0
 40
0.0
 40
0.0
 40
1.0
 40
1.0
 40
1.0
 40
1.0
 10
148.7648119247626
 20
-263.9294293959554
 30
0.0
 10
148.0048119247624
 20
-263.9294293959554
 30
0.0
 10
147.4648119247624
 20
-264.3994293959557
 30
0.0
 10
147.4648119247624
 20
-265.1794293959554
 30
0.0
  0
SPLINE
  5
89
330
2
100
AcDbEntity
  8
0_LOGO
100
AcDbSpline
210
0.0
220
0.0
230
1.0
 70
     8
 71
     3
 72
     8
 73
     4
 74
     0
 42
0.0000001
 43
0.0000000001
 40
0.0
 40
0.0
 40
0.0
 40
0.0
 40
1.0
 40
1.0
 40
1.0
 40
1.0
 10
147.4648119247624
 20
-265.1794293959554
 30
0.0
 10
147.4648119247624
 20
-265.9894293959558
 30
0.0
 10
148.0448119247624
 20
-266.4294293959554
 30
0.0
 10
148.8248119247626
 20
-266.4294293959554
 30
0.0
  0
SPLINE
  5
8A
330
2
100
AcDbEntity
  8
0_LOGO
100
AcDbSpline
210
0.0
220
0.0
230
1.0
 70
     8
 71
     3
 72
     8
 73
     4
 74
     0
 42
0.0000001
 43
0.0000000001
 40
0.0
 40
0.0
 40
0.0
 40
0.0
 40
1.0
 40
1.0
 40
1.0
 40
1.0
 10
148.8248119247626
 20
-266.4294293959554
 30
0.0
 10
149.3548119247627
 20
-266.4294293959554
 30
0.0
 10
149.8848119247625
 20
-266.1794293959554
 30
0.0
 10
150.0148119247626
 20
-265.6194293959555
 30
0.0
  0
LINE
  5
8B
330
2
100
AcDbEntity
  8
0_LOGO
100
AcDbLine
 10
150.0148119247626
 20
-265.6194293959555
 30
0.0
 11
149.2148119247624
 21
-265.6194293959555
 31
0.0
  0
SPLINE
  5
8C
330
2
100
AcDbEntity
  8
0_LOGO
100
AcDbSpline
210
0.0
220
0.0
230
1.0
 70
     8
 71
     3
 72
     8
 73
     4
 74
     0
 42
0.0000001
 43
0.0000000001
 40
0.0
 40
0.0
 40
0.0
 40
0.0
 40
1.0
 40
1.0
 40
1.0
 40
1.0
 10
149.2148119247624
 20
-265.6194293959555
 30
0.0
 10
149.1248119247627
 20
-265.7794293959558
 30
0.0
 10
148.9948119247626
 20
-265.8394293959553
 30
0.0
 10
148.8148119247623
 20
-265.8394293959553
 30
0.0
  0
SPLINE
  5
8D
330
2
100
AcDbEntity
  8
0_LOGO
100
AcDbSpline
210
0.0
220
0.0
230
1.0
 70
     8
 71
     3
 72
     8
 73
     4
 74
     0
 42
0.0000001
 43
0.0000000001
 40
0.0
 40
0.0
 40
0.0
 40
0.0
 40
1.0
 40
1.0
 40
1.0
 40
1.0
 10
148.8148119247623
 20
-265.8394293959553
 30
0.0
 10
148.4748119247626
 20
-265.8394293959553
 30
0.0
 10
148.2948119247623
 20
-265.6594293959555
 30
0.0
 10
148.2948119247623
 20
-265.3194293959558
 30
0.0
  0
LINE
  5
8E
330
2
100
AcDbEntity
  8
0_LOGO
100
AcDbLine
 10
148.2948119247623
 20
-265.3194293959558
 30
0.0
 11
150.0448119247623
 21
-265.3194293959558
 31
0.0
  0
LINE
  5
8F
330
2
100
AcDbEntity
  8
0_LOGO
100
AcDbLine
 10
150.0448119247623
 20
-265.3194293959558
 30
0.0
 11
150.0448119247623
 21
-265.2294293959556
 31
0.0
  0
LINE
  5
90
330
2
100
AcDbEntity
  8
0_LOGO
100
AcDbLine
 10
151.3648119247625
 20
-264.0094293959553
 30
0.0
 11
150.5348119247626
 21
-264.0094293959553
 31
0.0
  0
LINE
  5
91
330
2
100
AcDbEntity
  8
0_LOGO
100
AcDbLine
 10
150.5348119247626
 20
-264.0094293959553
 30
0.0
 11
150.5348119247626
 21
-266.3494293959555
 31
0.0
  0
LINE
  5
92
330
2
100
AcDbEntity
  8
0_LOGO
100
AcDbLine
 10
150.5348119247626
 20
-266.3494293959555
 30
0.0
 11
151.3648119247625
 21
-266.3494293959555
 31
0.0
  0
LINE
  5
93
330
2
100
AcDbEntity
  8
0_LOGO
100
AcDbLine
 10
151.3648119247625
 20
-266.3494293959555
 30
0.0
 11
151.3648119247625
 21
-265.1394293959555
 31
0.0
  0
SPLINE
  5
94
330
2
100
AcDbEntity
  8
0_LOGO
100
AcDbSpline
210
0.0
220
0.0
230
1.0
 70
     8
 71
     3
 72
     8
 73
     4
 74
     0
 42
0.0000001
 43
0.0000000001
 40
0.0
 40
0.0
 40
0.0
 40
0.0
 40
1.0
 40
1.0
 40
1.0
 40
1.0
 10
151.3648119247625
 20
-265.1394293959555
 30
0.0
 10
151.3648119247625
 20
-264.8394293959553
 30
0.0
 10
151.4648119247624
 20
-264.5894293959553
 30
0.0
 10
151.7948119247624
 20
-264.5894293959553
 30
0.0
  0
SPLINE
  5
95
330
2
100
AcDbEntity
  8
0_LOGO
100
AcDbSpline
210
0.0
220
0.0
230
1.0
 70
     8
 71
     3
 72
     8
 73
     4
 74
     0
 42
0.0000001
 43
0.0000000001
 40
0.0
 40
0.0
 40
0.0
 40
0.0
 40
1.0
 40
1.0
 40
1.0
 40
1.0
 10
151.7948119247624
 20
-264.5894293959553
 30
0.0
 10
152.2148119247624
 20
-264.5894293959553
 30
0.0
 10
152.1748119247624
 20
-264.9794293959556
 30
0.0
 10
152.1748119247624
 20
-265.2094293959552
 30
0.0
  0
LINE
  5
96
330
2
100
AcDbEntity
  8
0_LOGO
100
AcDbLine
 10
152.1748119247624
 20
-265.2094293959552
 30
0.0
 11
152.1748119247624
 21
-266.3494293959555
 31
0.0
  0
LINE
  5
97
330
2
100
AcDbEntity
  8
0_LOGO
100
AcDbLine
 10
152.1748119247624
 20
-266.3494293959555
 30
0.0
 11
153.0048119247624
 21
-266.3494293959555
 31
0.0
  0
LINE
  5
98
330
2
100
AcDbEntity
  8
0_LOGO
100
AcDbLine
 10
153.0048119247624
 20
-266.3494293959555
 30
0.0
 11
153.0048119247624
 21
-264.8994293959557
 31
0.0
  0
SPLINE
  5
99
330
2
100
AcDbEntity
  8
0_LOGO
100
AcDbSpline
210
0.0
220
0.0
230
1.0
 70
     8
 71
     3
 72
     8
 73
     4
 74
     0
 42
0.0000001
 43
0.0000000001
 40
0.0
 40
0.0
 40
0.0
 40
0.0
 40
1.0
 40
1.0
 40
1.0
 40
1.0
 10
153.0048119247624
 20
-264.8994293959557
 30
0.0
 10
153.0048119247624
 20
-264.3294293959555
 30
0.0
 10
152.7548119247624
 20
-263.9294293959554
 30
0.0
 10
152.1248119247627
 20
-263.9294293959554
 30
0.0
  0
SPLINE
  5
9A
330
2
100
AcDbEntity
  8
0_LOGO
100
AcDbSpline
210
0.0
220
0.0
230
1.0
 70
     8
 71
     3
 72
     8
 73
     4
 74
     0
 42
0.0000001
 43
0.0000000001
 40
0.0
 40
0.0
 40
0.0
 40
0.0
 40
1.0
 40
1.0
 40
1.0
 40
1.0
 10
152.1248119247627
 20
-263.9294293959554
 30
0.0
 10
151.7948119247624
 20
-263.9294293959554
 30
0.0
 10
151.5648119247623
 20
-264.0294293959558
 30
0.0
 10
151.3748119247627
 20
-264.3094293959555
 30
0.0
  0
LINE
  5
9B
330
2
100
AcDbEntity
  8
0_LOGO
100
AcDbLine
 10
151.3748119247627
 20
-264.3094293959555
 30
0.0
 11
151.3648119247625
 21
-264.0094293959553
 31
0.0
  0
LWPOLYLINE
  5
9C
330
2
100
AcDbEntity
  8
0_LOGO
100
AcDbPolyline
 90
        4
 70
     1
 43
0.0
 10
156.0148119247626
 20
-264.0094293959553
 10
155.1848119247627
 20
-264.0094293959553
 10
155.1848119247627
 20
-266.3494293959555
 10
156.0148119247626
 20
-266.3494293959555
  0
CIRCLE
  5
9D
330
2
100
AcDbEntity
  8
0_LOGO
100
AcDbCircle
 10
155.5948119247625
 20
-263.1094293959557
 30
0.0
 40
0.47
  0
SPLINE
  5
9E
330
2
100
AcDbEntity
  8
0_LOGO
100
AcDbSpline
210
0.0
220
0.0
230
1.0
 70
     8
 71
     3
 72
     8
 73
     4
 74
     0
 42
0.0000001
 43
0.0000000001
 40
0.0
 40
0.0
 40
0.0
 40
0.0
 40
1.0
 40
1.0
 40
1.0
 40
1.0
 10
158.4148119247627
 20
-264.0794293959555
 30
0.0
 10
158.1748119247625
 20
-263.9694293959554
 30
0.0
 10
157.9148119247627
 20
-263.9294293959554
 30
0.0
 10
157.6448119247627
 20
-263.9294293959554
 30
0.0
  0
SPLINE
  5
9F
330
2
100
AcDbEntity
  8
0_LOGO
100
AcDbSpline
210
0.0
220
0.0
230
1.0
 70
     8
 71
     3
 72
     8
 73
     4
 74
     0
 42
0.0000001
 43
0.0000000001
 40
0.0
 40
0.0
 40
0.0
 40
0.0
 40
1.0
 40
1.0
 40
1.0
 40
1.0
 10
157.6448119247627
 20
-263.9294293959554
 30
0.0
 10
157.1348119247625
 20
-263.9294293959554
 30
0.0
 10
156.6148119247625
 20
-264.1894293959556
 30
0.0
 10
156.6148119247625
 20
-264.7594293959553
 30
0.0
  0
SPLINE
  5
A0
330
2
100
AcDbEntity
  8
0_LOGO
100
AcDbSpline
210
0.0
220
0.0
230
1.0
 70
     8
 71
     3
 72
     8
 73
     4
 74
     0
 42
0.0000001
 43
0.0000000001
 40
0.0
 40
0.0
 40
0.0
 40
0.0
 40
1.0
 40
1.0
 40
1.0
 40
1.0
 10
156.6148119247625
 20
-264.7594293959553
 30
0.0
 10
156.6148119247625
 20
-265.1794293959554
 30
0.0
 10
156.8748119247627
 20
-265.3094293959555
 30
0.0
 10
157.1348119247625
 20
-265.3794293959553
 30
0.0
  0
SPLINE
  5
A1
330
2
100
AcDbEntity
  8
0_LOGO
100
AcDbSpline
210
0.0
220
0.0
230
1.0
 70
     8
 71
     3
 72
     8
 73
     4
 74
     0
 42
0.0000001
 43
0.0000000001
 40
0.0
 40
0.0
 40
0.0
 40
0.0
 40
1.0
 40
1.0
 40
1.0
 40
1.0
 10
157.1348119247625
 20
-265.3794293959553
 30
0.0
 10
157.3948119247627
 20
-265.4494293959554
 30
0.0
 10
157.6548119247625
 20
-265.4494293959554
 30
0.0
 10
157.6548119247625
 20
-265.6394293959555
 30
0.0
  0
SPLINE
  5
A2
330
2
100
AcDbEntity
  8
0_LOGO
100
AcDbSpline
210
0.0
220
0.0
230
1.0
 70
     8
 71
     3
 72
     8
 73
     4
 74
     0
 42
0.0000001
 43
0.0000000001
 40
0.0
 40
0.0
 40
0.0
 40
0.0
 40
1.0
 40
1.0
 40
1.0
 40
1.0
 10
157.6548119247625
 20
-265.6394293959555
 30
0.0
 10
157.6548119247625
 20
-265.7694293959556
 30
0.0
 10
157.4948119247626
 20
-265.8194293959557
 30
0.0
 10
157.3948119247627
 20
-265.8194293959557
 30
0.0
  0
SPLINE
  5
A3
330
2
100
AcDbEntity
  8
0_LOGO
100
AcDbSpline
210
0.0
220
0.0
230
1.0
 70
     8
 71
     3
 72
     8
 73
     4
 74
     0
 42
0.0000001
 43
0.0000000001
 40
0.0
 40
0.0
 40
0.0
 40
0.0
 40
1.0
 40
1.0
 40
1.0
 40
1.0
 10
157.3948119247627
 20
-265.8194293959557
 30
0.0
 10
157.1948119247624
 20
-265.8194293959557
 30
0.0
 10
156.9048119247625
 20
-265.6994293959554
 30
0.0
 10
156.7348119247624
 20
-265.5794293959555
 30
0.0
  0
LINE
  5
A4
330
2
100
AcDbEntity
  8
0_LOGO
100
AcDbLine
 10
156.7348119247624
 20
-265.5794293959555
 30
0.0
 11
156.4348119247627
 21
-266.1594293959554
 31
0.0
  0
SPLINE
  5
A5
330
2
100
AcDbEntity
  8
0_LOGO
100
AcDbSpline
210
0.0
220
0.0
230
1.0
 70
     8
 71
     3
 72
     8
 73
     4
 74
     0
 42
0.0000001
 43
0.0000000001
 40
0.0
 40
0.0
 40
0.0
 40
0.0
 40
1.0
 40
1.0
 40
1.0
 40
1.0
 10
156.4348119247627
 20
-266.1594293959554
 30
0.0
 10
156.7148119247624
 20
-266.3294293959555
 30
0.0
 10
157.0448119247624
 20
-266.4294293959554
 30
0.0
 10
157.3848119247625
 20
-266.4294293959554
 30
0.0
  0
SPLINE
  5
A6
330
2
100
AcDbEntity
  8
0_LOGO
100
AcDbSpline
210
0.0
220
0.0
230
1.0
 70
     8
 71
     3
 72
     8
 73
     4
 74
     0
 42
0.0000001
 43
0.0000000001
 40
0.0
 40
0.0
 40
0.0
 40
0.0
 40
1.0
 40
1.0
 40
1.0
 40
1.0
 10
157.3848119247625
 20
-266.4294293959554
 30
0.0
 10
157.9248119247625
 20
-266.4294293959554
 30
0.0
 10
158.4848119247624
 20
-266.1694293959552
 30
0.0
 10
158.4848119247624
 20
-265.5494293959553
 30
0.0
  0
SPLINE
  5
A7
330
2
100
AcDbEntity
  8
0_LOGO
100
AcDbSpline
210
0.0
220
0.0
230
1.0
 70
     8
 71
     3
 72
     8
 73
     4
 74
     0
 42
0.0000001
 43
0.0000000001
 40
0.0
 40
0.0
 40
0.0
 40
0.0
 40
1.0
 40
1.0
 40
1.0
 40
1.0
 10
158.4848119247624
 20
-265.5494293959553
 30
0.0
 10
158.4848119247624
 20
-265.1194293959555
 30
0.0
 10
158.1948119247624
 20
-264.9394293959556
 30
0.0
 10
157.8048119247626
 20
-264.8594293959557
 30
0.0
  0
SPLINE
  5
A8
330
2
100
AcDbEntity
  8
0_LOGO
100
AcDbSpline
210
0.0
220
0.0
230
1.0
 70
     8
 71
     3
 72
     8
 73
     4
 74
     0
 42
0.0000001
 43
0.0000000001
 40
0.0
 40
0.0
 40
0.0
 40
0.0
 40
1.0
 40
1.0
 40
1.0
 40
1.0
 10
157.8048119247626
 20
-264.8594293959557
 30
0.0
 10
157.6948119247624
 20
-264.8394293959553
 30
0.0
 10
157.4348119247627
 20
-264.8194293959558
 30
0.0
 10
157.4348119247627
 20
-264.6594293959554
 30
0.0
  0
SPLINE
  5
A9
330
2
100
AcDbEntity
  8
0_LOGO
100
AcDbSpline
210
0.0
220
0.0
230
1.0
 70
     8
 71
     3
 72
     8
 73
     4
 74
     0
 42
0.0000001
 43
0.0000000001
 40
0.0
 40
0.0
 40
0.0
 40
0.0
 40
1.0
 40
1.0
 40
1.0
 40
1.0
 10
157.4348119247627
 20
-264.6594293959554
 30
0.0
 10
157.4348119247627
 20
-264.5394293959555
 30
0.0
 10
157.5948119247625
 20
-264.4994293959556
 30
0.0
 10
157.6948119247624
 20
-264.4994293959556
 30
0.0
  0
SPLINE
  5
AA
330
2
100
AcDbEntity
  8
0_LOGO
100
AcDbSpline
210
0.0
220
0.0
230
1.0
 70
     8
 71
     3
 72
     8
 73
     4
 74
     0
 42
0.0000001
 43
0.0000000001
 40
0.0
 40
0.0
 40
0.0
 40
0.0
 40
1.0
 40
1.0
 40
1.0
 40
1.0
 10
157.6948119247624
 20
-264.4994293959556
 30
0.0
 10
157.8348119247623
 20
-264.4994293959556
 30
0.0
 10
158.0148119247626
 20
-264.5394293959555
 30
0.0
 10
158.1348119247625
 20
-264.6094293959557
 30
0.0
  0
LINE
  5
AB
330
2
100
AcDbEntity
  8
0_LOGO
100
AcDbLine
 10
158.1348119247625
 20
-264.6094293959557
 30
0.0
 11
158.4148119247627
 21
-264.0794293959555
 31
0.0
  0
LWPOLYLINE
  5
AC
330
2
100
AcDbEntity
  8
0_LOGO
100
AcDbPolyline
 90
       12
 70
     1
 43
0.0
 10
159.8648119247625
 20
-264.6894293959556
 10
160.3348119247623
 20
-264.6894293959556
 10
160.3348119247623
 20
-264.0094293959553
 10
159.8648119247625
 20
-264.0094293959553
 10
159.8648119247625
 20
-263.2994293959553
 10
159.0348119247626
 20
-263.2994293959553
 10
159.0348119247626
 20
-264.0094293959553
 10
158.7648119247626
 20
-264.0094293959553
 10
158.7648119247626
 20
-264.6894293959556
 10
159.0348119247626
 20
-264.6894293959556
 10
159.0348119247626
 20
-266.3494293959555
 10
159.8648119247625
 20
-266.3494293959555
  0
SPLINE
  5
AD
330
2
100
AcDbEntity
  8
0_LOGO
100
AcDbSpline
210
0.0
220
0.0
230
1.0
 70
     8
 71
     3
 72
     8
 73
     4
 74
     0
 42
0.0000001
 43
0.0000000001
 40
0.0415784318112978
 40
0.0415784318112978
 40
0.0415784318112978
 40
0.0415784318112978
 40
1.0
 40
1.0
 40
1.0
 40
1.0
 10
200.9833914004726
 20
-262.2894293959555
 30
0.0
 10
201.048172774627
 20
-262.3270355408311
 30
0.0
 10
201.0873066306709
 20
-262.3569836778514
 30
0.0
 10
201.1448119247626
 20
-262.4144889719426
 30
0.0
  0
SPLINE
  5
AE
330
2
100
AcDbEntity
  8
0_LOGO
100
AcDbSpline
210
0.0
220
0.0
230
1.0
 70
     8
 71
     3
 72
     8
 73
     4
 74
     0
 42
0.0000001
 43
0.0000000001
 40
0.0
 40
0.0
 40
0.0
 40
0.0
 40
0.9911152292106779
 40
0.9911152292106779
 40
0.9911152292106779
 40
0.9911152292106779
 10
201.1448119247626
 20
-262.4144889719426
 30
0.0
 10
201.283568056852
 20
-262.5532451040324
 30
0.0
 10
201.2553315913538
 20
-262.7214705180493
 30
0.0
 10
201.2548188890147
 20
-262.9094293959559
 30
0.0
  0
LINE
  5
AF
330
2
100
AcDbEntity
  8
0_LOGO
100
AcDbLine
 10
200.5148119247625
 20
-262.2894293959555
 30
0.0
 11
201.0248119247623
 21
-262.2894293959555
 31
0.0
  0
SPLINE
  5
B0
330
2
100
AcDbEntity
  8
0_LOGO
100
AcDbSpline
210
0.0
220
0.0
230
1.0
 70
     8
 71
     3
 72
     8
 73
     4
 74
     0
 42
0.0000001
 43
0.0000000001
 40
0.0
 40
0.0
 40
0.0
 40
0.0
 40
1.0
 40
1.0
 40
1.0
 40
1.0
 10
201.0248119247623
 20
-262.2894293959555
 30
0.0
 10
201.1648119247626
 20
-262.2694293959556
 30
0.0
 10
201.2648119247625
 20
-262.1494293959557
 30
0.0
 10
201.2648119247625
 20
-262.0094293959553
 30
0.0
  0
SPLINE
  5
B1
330
2
100
AcDbEntity
  8
0_LOGO
100
AcDbSpline
210
0.0
220
0.0
230
1.0
 70
     8
 71
     3
 72
     8
 73
     4
 74
     0
 42
0.0000001
 43
0.0000000001
 40
0.0
 40
0.0
 40
0.0
 40
0.0
 40
1.0
 40
1.0
 40
1.0
 40
1.0
 10
201.2648119247625
 20
-262.0094293959553
 30
0.0
 10
201.2648119247625
 20
-261.8594293959557
 30
0.0
 10
201.1748119247624
 20
-261.7494293959556
 30
0.0
 10
201.0348119247625
 20
-261.7194293959554
 30
0.0
  0
LINE
  5
B2
330
2
100
AcDbEntity
  8
0_LOGO
100
AcDbLine
 10
201.0348119247625
 20
-261.7194293959554
 30
0.0
 11
200.5148119247625
 21
-261.7194293959554
 31
0.0
  0
SPLINE
  5
B3
330
2
100
AcDbEntity
  8
0_LOGO
100
AcDbSpline
210
0.0
220
0.0
230
1.0
 70
     8
 71
     3
 72
     8
 73
     4
 74
     0
 42
0.0000001
 43
0.0000000001
 40
0.0
 40
0.0
 40
0.0
 40
0.0
 40
1.0
 40
1.0
 40
1.0
 40
1.0
 10
201.2648119247625
 20
-262.0094293959553
 30
0.0
 10
201.2648119247625
 20
-261.8594293959557
 30
0.0
 10
201.1748119247624
 20
-261.7494293959556
 30
0.0
 10
201.0348119247625
 20
-261.7194293959554
 30
0.0
  0
LINE
  5
B4
330
2
100
AcDbEntity
  8
0_LOGO
100
AcDbLine
 10
200.5089984751704
 20
-261.7194293959554
 30
0.0
 11
200.5089984751704
 21
-262.9094293959554
 31
0.0
  0
CIRCLE
  5
B5
330
2
100
AcDbEntity
  8
0_LOGO
100
AcDbCircle
 10
200.8448119247624
 20
-262.2894293959555
 30
0.0
 40
1.01
  0
LWPOLYLINE
  5
B6
330
2
100
AcDbEntity
  8
0_LOGO
100
AcDbPolyline
 90
        4
 70
     1
 43
0.0
 10
6.911338523831304
 20
-267.6194293959555
 10
160.3448119247625
 20
-267.6194293959555
 10
160.3448119247625
 20
-271.1394293959555
 10
6.911338523831304
 20
-271.1394293959555
  0
LINE
  5
B7
330
2
100
AcDbEntity
  8
0_LOGO
100
AcDbLine
 10
162.4248119247624
 20
-263.9894293959558
 30
0.0
 11
162.4248119247624
 21
-271.1394293959555
 31
0.0
  0
LINE
  5
B8
330
2
100
AcDbEntity
  8
0_LOGO
100
AcDbLine
 10
165.1148119247625
 20
-271.1394293959555
 30
0.0
 11
165.1148119247625
 21
-266.7894293959555
 31
0.0
  0
SPLINE
  5
B9
330
2
100
AcDbEntity
  8
0_LOGO
100
AcDbSpline
210
0.0
220
0.0
230
1.0
 70
     8
 71
     3
 72
     8
 73
     4
 74
     0
 42
0.0000001
 43
0.0000000001
 40
0.0
 40
0.0
 40
0.0
 40
0.0
 40
1.0
 40
1.0
 40
1.0
 40
1.0
 10
165.1148119247625
 20
-266.7894293959555
 30
0.0
 10
165.1048119247628
 20
-266.2394293959558
 30
0.0
 10
165.6648119247627
 20
-265.7594293959554
 30
0.0
 10
166.3148119247623
 20
-265.8294293959555
 30
0.0
  0
SPLINE
  5
BA
330
2
100
AcDbEntity
  8
0_LOGO
100
AcDbSpline
210
0.0
220
0.0
230
1.0
 70
     8
 71
     3
 72
     8
 73
     4
 74
     0
 42
0.0000001
 43
0.0000000001
 40
0.0
 40
0.0
 40
0.0
 40
0.0
 40
1.0
 40
1.0
 40
1.0
 40
1.0
 10
166.3148119247623
 20
-265.8294293959555
 30
0.0
 10
166.9048119247625
 20
-265.8694293959555
 30
0.0
 10
167.3848119247625
 20
-266.3194293959557
 30
0.0
 10
167.4148119247627
 20
-266.9194293959552
 30
0.0
  0
LINE
  5
BB
330
2
100
AcDbEntity
  8
0_LOGO
100
AcDbLine
 10
167.4148119247627
 20
-266.9194293959552
 30
0.0
 11
167.4148119247627
 21
-271.1394293959555
 31
0.0
  0
LINE
  5
BC
330
2
100
AcDbEntity
  8
0_LOGO
100
AcDbLine
 10
170.0948119247625
 20
-271.1394293959555
 30
0.0
 11
170.0948119247625
 21
-266.7394293959558
 31
0.0
  0
SPLINE
  5
BD
330
2
100
AcDbEntity
  8
0_LOGO
100
AcDbSpline
210
0.0
220
0.0
230
1.0
 70
     8
 71
     3
 72
     8
 73
     4
 74
     0
 42
0.0000001
 43
0.0000000001
 40
0.0
 40
0.0
 40
0.0
 40
0.0
 40
1.0
 40
1.0
 40
1.0
 40
1.0
 10
170.0948119247625
 20
-266.7394293959558
 30
0.0
 10
170.0948119247625
 20
-266.1194293959555
 30
0.0
 10
170.7848119247626
 20
-265.7194293959554
 30
0.0
 10
171.2548119247624
 20
-265.7894293959556
 30
0.0
  0
SPLINE
  5
BE
330
2
100
AcDbEntity
  8
0_LOGO
100
AcDbSpline
210
0.0
220
0.0
230
1.0
 70
     8
 71
     3
 72
     8
 73
     4
 74
     0
 42
0.0000001
 43
0.0000000001
 40
0.0
 40
0.0
 40
0.0
 40
0.0
 40
1.0
 40
1.0
 40
1.0
 40
1.0
 10
171.2548119247624
 20
-265.7894293959556
 30
0.0
 10
171.8448119247625
 20
-265.8694293959555
 30
0.0
 10
172.2248119247626
 20
-266.1794293959554
 30
0.0
 10
172.3148119247623
 20
-266.7194293959554
 30
0.0
  0
LINE
  5
BF
330
2
100
AcDbEntity
  8
0_LOGO
100
AcDbLine
 10
172.3148119247623
 20
-266.7194293959554
 30
0.0
 11
172.3148119247623
 21
-271.1394293959555
 31
0.0
  0
LINE
  5
C0
330
2
100
AcDbEntity
  8
0_LOGO
100
AcDbLine
 10
175.0048119247624
 20
-271.1394293959555
 30
0.0
 11
175.0048119247624
 21
-266.0794293959555
 31
0.0
  0
SPLINE
  5
C1
330
2
100
AcDbEntity
  8
0_LOGO
100
AcDbSpline
210
0.0
220
0.0
230
1.0
 70
     8
 71
     3
 72
     8
 73
     4
 74
     0
 42
0.0000001
 43
0.0000000001
 40
0.0
 40
0.0
 40
0.0
 40
0.0
 40
1.0
 40
1.0
 40
1.0
 40
1.0
 10
175.0048119247624
 20
-266.0794293959555
 30
0.0
 10
174.9748119247627
 20
-265.0194293959556
 30
0.0
 10
173.9448119247624
 20
-263.7494293959556
 30
0.0
 10
172.1948119247624
 20
-263.7494293959556
 30
0.0
  0
SPLINE
  5
C2
330
2
100
AcDbEntity
  8
0_LOGO
100
AcDbSpline
210
0.0
220
0.0
230
1.0
 70
     8
 71
     3
 72
     8
 73
     4
 74
     0
 42
0.0000001
 43
0.0000000001
 40
0.0
 40
0.0
 40
0.0
 40
0.0
 40
1.0
 40
1.0
 40
1.0
 40
1.0
 10
172.1948119247624
 20
-263.7494293959556
 30
0.0
 10
171.0648119247623
 20
-263.7494293959556
 30
0.0
 10
170.2248119247626
 20
-264.1094293959557
 30
0.0
 10
169.5748119247626
 20
-265.0394293959556
 30
0.0
  0
SPLINE
  5
C3
330
2
100
AcDbEntity
  8
0_LOGO
100
AcDbSpline
210
0.0
220
0.0
230
1.0
 70
     8
 71
     3
 72
     8
 73
     4
 74
     0
 42
0.0000001
 43
0.0000000001
 40
0.0
 40
0.0
 40
0.0
 40
0.0
 40
1.0
 40
1.0
 40
1.0
 40
1.0
 10
169.5748119247626
 20
-265.0394293959556
 30
0.0
 10
169.0648119247623
 20
-264.1894293959556
 30
0.0
 10
168.3648119247625
 20
-263.7594293959554
 30
0.0
 10
167.3748119247627
 20
-263.7494293959556
 30
0.0
  0
SPLINE
  5
C4
330
2
100
AcDbEntity
  8
0_LOGO
100
AcDbSpline
210
0.0
220
0.0
230
1.0
 70
     8
 71
     3
 72
     8
 73
     4
 74
     0
 42
0.0000001
 43
0.0000000001
 40
0.0
 40
0.0
 40
0.0
 40
0.0
 40
1.0
 40
1.0
 40
1.0
 40
1.0
 10
167.3748119247627
 20
-263.7494293959556
 30
0.0
 10
166.5048119247624
 20
-263.7394293959558
 30
0.0
 10
165.7048119247626
 20
-264.0694293959557
 30
0.0
 10
165.1148119247625
 20
-264.9194293959552
 30
0.0
  0
LINE
  5
C5
330
2
100
AcDbEntity
  8
0_LOGO
100
AcDbLine
 10
165.1148119247625
 20
-264.9194293959552
 30
0.0
 11
165.1148119247625
 21
-263.9894293959558
 31
0.0
  0
LINE
  5
C6
330
2
100
AcDbEntity
  8
0_LOGO
100
AcDbLine
 10
165.1148119247625
 20
-263.9894293959558
 30
0.0
 11
162.4248119247624
 21
-263.9894293959558
 31
0.0
  0
LINE
  5
C7
330
2
100
AcDbEntity
  8
0_LOGO
100
AcDbLine
 10
196.4348119247626
 20
-261.1994293959554
 30
0.0
 11
196.4348119247626
 21
-267.8894293959555
 31
0.0
  0
SPLINE
  5
C8
330
2
100
AcDbEntity
  8
0_LOGO
100
AcDbSpline
210
0.0
220
0.0
230
1.0
 70
     8
 71
     3
 72
     8
 73
     4
 74
     0
 42
0.0000001
 43
0.0000000001
 40
0.0
 40
0.0
 40
0.0
 40
0.0
 40
1.0
 40
1.0
 40
1.0
 40
1.0
 10
196.4348119247626
 20
-267.8894293959555
 30
0.0
 10
196.4948119247625
 20
-269.8794293959553
 30
0.0
 10
198.2348119247623
 20
-271.4194293959552
 30
0.0
 10
200.2548119247623
 20
-271.3894293959555
 30
0.0
  0
SPLINE
  5
C9
330
2
100
AcDbEntity
  8
0_LOGO
100
AcDbSpline
210
0.0
220
0.0
230
1.0
 70
     8
 71
     3
 72
     8
 73
     4
 74
     0
 42
0.0000001
 43
0.0000000001
 40
0.0
 40
0.0
 40
0.0
 40
0.0
 40
1.0
 40
1.0
 40
1.0
 40
1.0
 10
200.2548119247623
 20
-271.3894293959555
 30
0.0
 10
200.9048119247624
 20
-271.3794293959552
 30
0.0
 10
201.2848119247625
 20
-271.2894293959556
 30
0.0
 10
201.8648119247624
 20
-270.9994293959556
 30
0.0
  0
LINE
  5
CA
330
2
100
AcDbEntity
  8
0_LOGO
100
AcDbLine
 10
201.8648119247624
 20
-270.9994293959556
 30
0.0
 11
201.8648119247624
 21
-268.0094293959554
 31
0.0
  0
SPLINE
  5
CB
330
2
100
AcDbEntity
  8
0_LOGO
100
AcDbSpline
210
0.0
220
0.0
230
1.0
 70
     8
 71
     3
 72
     8
 73
     4
 74
     0
 42
0.0000001
 43
0.0000000001
 40
0.0
 40
0.0
 40
0.0
 40
0.0
 40
1.0
 40
1.0
 40
1.0
 40
1.0
 10
201.8648119247624
 20
-268.0094293959554
 30
0.0
 10
201.6648119247626
 20
-268.5394293959555
 30
0.0
 10
201.2948119247623
 20
-268.9194293959552
 30
0.0
 10
200.7448119247625
 20
-268.9194293959552
 30
0.0
  0
SPLINE
  5
CC
330
2
100
AcDbEntity
  8
0_LOGO
100
AcDbSpline
210
0.0
220
0.0
230
1.0
 70
     8
 71
     3
 72
     8
 73
     4
 74
     0
 42
0.0000001
 43
0.0000000001
 40
0.0
 40
0.0
 40
0.0
 40
0.0
 40
1.0
 40
1.0
 40
1.0
 40
1.0
 10
200.7448119247625
 20
-268.9194293959552
 30
0.0
 10
199.9548119247625
 20
-268.9194293959552
 30
0.0
 10
199.1548119247624
 20
-268.5594293959555
 30
0.0
 10
199.1148119247624
 20
-267.8894293959555
 30
0.0
  0
LINE
  5
CD
330
2
100
AcDbEntity
  8
0_LOGO
100
AcDbLine
 10
199.1148119247624
 20
-266.1994293959554
 30
0.0
 11
201.8648119247624
 21
-266.1994293959554
 31
0.0
  0
LINE
  5
CE
330
2
100
AcDbEntity
  8
0_LOGO
100
AcDbLine
 10
201.8648119247624
 20
-266.1994293959554
 30
0.0
 11
201.8648119247624
 21
-264.0394293959555
 31
0.0
  0
LINE
  5
CF
330
2
100
AcDbEntity
  8
0_LOGO
100
AcDbLine
 10
201.8648119247624
 20
-264.0394293959555
 30
0.0
 11
199.1148119247624
 21
-264.0394293959555
 31
0.0
  0
LINE
  5
D0
330
2
100
AcDbEntity
  8
0_LOGO
100
AcDbLine
 10
199.1148119247624
 20
-261.1994293959554
 30
0.0
 11
196.4348119247626
 21
-261.1994293959554
 31
0.0
  0
LWPOLYLINE
  5
D1
330
2
100
AcDbEntity
  8
0_LOGO
100
AcDbPolyline
 90
       12
 70
     1
 43
0.0
 10
189.6548119247624
 20
-263.9894293959558
 10
193.1348119247624
 20
-263.9894293959558
 10
190.0748119247624
 20
-267.5094293959554
 10
193.1248119247626
 20
-271.1394293959555
 10
189.7548119247623
 20
-271.1394293959555
 10
188.4348119247626
 20
-269.4494293959554
 10
187.1348119247624
 20
-271.1394293959555
 10
183.7848119247626
 20
-271.1394293959555
 10
186.8048119247625
 20
-267.4994293959556
 10
183.7748119247624
 20
-263.9894293959558
 10
187.1948119247623
 20
-263.9894293959558
 10
188.4348119247626
 20
-265.5694293959558
  0
LWPOLYLINE
  5
D2
330
2
100
AcDbEntity
  8
0_LOGO
100
AcDbPolyline
 90
        4
 70
     1
 43
0.0
 10
195.8648119247624
 20
-271.1394293959555
 10
193.1348119247624
 20
-271.1394293959555
 10
193.1348119247624
 20
-263.9894293959558
 10
195.8648119247624
 20
-263.9894293959558
  0
LINE
  5
D3
330
2
100
AcDbEntity
  8
0_LOGO
100
AcDbLine
 10
181.0848119247623
 20
-263.9894293959558
 30
0.0
 11
183.7748119247624
 21
-263.9894293959558
 31
0.0
  0
LINE
  5
D4
330
2
100
AcDbEntity
  8
0_LOGO
100
AcDbLine
 10
183.7748119247624
 20
-263.9894293959558
 30
0.0
 11
183.7748119247624
 21
-271.1394293959555
 31
0.0
  0
LINE
  5
D5
330
2
100
AcDbEntity
  8
0_LOGO
100
AcDbLine
 10
181.0848119247623
 20
-271.1468525524686
 30
0.0
 11
181.0848119247623
 21
-270.2868525524685
 31
0.0
  0
SPLINE
  5
D6
330
2
100
AcDbEntity
  8
0_LOGO
100
AcDbSpline
210
0.0
220
0.0
230
1.0
 70
     8
 71
     3
 72
     8
 73
     4
 74
     0
 42
0.0000001
 43
0.0000000001
 40
0.0
 40
0.0
 40
0.0
 40
0.0
 40
1.0
 40
1.0
 40
1.0
 40
1.0
 10
181.0848119247623
 20
-270.2868525524685
 30
0.0
 10
180.3648119247625
 20
-271.0368525524685
 30
0.0
 10
179.6848119247627
 20
-271.3368525524682
 30
0.0
 10
178.6448119247627
 20
-271.3468525524684
 30
0.0
  0
SPLINE
  5
D7
330
2
100
AcDbEntity
  8
0_LOGO
100
AcDbSpline
210
0.0
220
0.0
230
1.0
 70
     8
 71
     3
 72
     8
 73
     4
 74
     0
 42
0.0000001
 43
0.0000000001
 40
0.0
 40
0.0
 40
0.0
 40
0.0
 40
1.0
 40
1.0
 40
1.0
 40
1.0
 10
178.6448119247627
 20
-271.3394293959553
 30
0.0
 10
176.6648119247627
 20
-271.3794293959552
 30
0.0
 10
175.1948119247624
 20
-269.6894293959557
 30
0.0
 10
175.1048119247627
 20
-267.7194293959554
 30
0.0
  0
SPLINE
  5
D8
330
2
100
AcDbEntity
  8
0_LOGO
100
AcDbSpline
210
0.0
220
0.0
230
1.0
 70
     8
 71
     3
 72
     8
 73
     4
 74
     0
 42
0.0000001
 43
0.0000000001
 40
0.0
 40
0.0
 40
0.0
 40
0.0
 40
1.0
 40
1.0
 40
1.0
 40
1.0
 10
175.1048119247627
 20
-267.7194293959554
 30
0.0
 10
175.0148119247626
 20
-265.6594293959555
 30
0.0
 10
176.5448119247623
 20
-263.6594293959555
 30
0.0
 10
178.6048119247628
 20
-263.7494293959556
 30
0.0
  0
SPLINE
  5
D9
330
2
100
AcDbEntity
  8
0_LOGO
100
AcDbSpline
210
0.0
220
0.0
230
1.0
 70
     8
 71
     3
 72
     8
 73
     4
 74
     0
 42
0.0000001
 43
0.0000000001
 40
0.0
 40
0.0
 40
0.0
 40
0.0
 40
1.0
 40
1.0
 40
1.0
 40
1.0
 10
178.6048119247628
 20
-263.7494293959556
 30
0.0
 10
179.6948119247624
 20
-263.7994293959553
 30
0.0
 10
180.4048119247625
 20
-264.1594293959554
 30
0.0
 10
181.0848119247623
 20
-264.9994293959556
 30
0.0
  0
LINE
  5
DA
330
2
100
AcDbEntity
  8
0_LOGO
100
AcDbLine
 10
181.0848119247623
 20
-264.9994293959556
 30
0.0
 11
181.0848119247623
 21
-263.9894293959558
 31
0.0
  0
SPLINE
  5
DB
330
2
100
AcDbEntity
  8
0_LOGO
100
AcDbSpline
210
0.0
220
0.0
230
1.0
 70
     8
 71
     3
 72
     8
 73
     4
 74
     0
 42
0.0000001
 43
0.0000000001
 40
0.0
 40
0.0
 40
0.0
 40
0.0
 40
1.0
 40
1.0
 40
1.0
 40
1.0
 10
181.0748119247626
 20
-267.3994293959557
 30
0.0
 10
181.0048119247624
 20
-266.6094293959557
 30
0.0
 10
180.4048119247625
 20
-266.0394293959555
 30
0.0
 10
179.6348119247625
 20
-266.0194293959555
 30
0.0
  0
SPLINE
  5
DC
330
2
100
AcDbEntity
  8
0_LOGO
100
AcDbSpline
210
0.0
220
0.0
230
1.0
 70
     8
 71
     3
 72
     8
 73
     4
 74
     0
 42
0.0000001
 43
0.0000000001
 40
0.0
 40
0.0
 40
0.0
 40
0.0
 40
1.0
 40
1.0
 40
1.0
 40
1.0
 10
179.6348119247625
 20
-266.0194293959555
 30
0.0
 10
178.7648119247626
 20
-265.9894293959558
 30
0.0
 10
178.0748119247625
 20
-266.7594293959553
 30
0.0
 10
178.0848119247623
 20
-267.6294293959553
 30
0.0
  0
SPLINE
  5
DD
330
2
100
AcDbEntity
  8
0_LOGO
100
AcDbSpline
210
0.0
220
0.0
230
1.0
 70
     8
 71
     3
 72
     8
 73
     4
 74
     0
 42
0.0000001
 43
0.0000000001
 40
0.0
 40
0.0
 40
0.0
 40
0.0
 40
1.0
 40
1.0
 40
1.0
 40
1.0
 10
178.0848119247623
 20
-267.6294293959553
 30
0.0
 10
178.0948119247625
 20
-268.4994293959556
 30
0.0
 10
178.8448119247625
 20
-269.2094293959552
 30
0.0
 10
179.6948119247624
 20
-269.1894293959556
 30
0.0
  0
SPLINE
  5
DE
330
2
100
AcDbEntity
  8
0_LOGO
100
AcDbSpline
210
0.0
220
0.0
230
1.0
 70
     8
 71
     3
 72
     8
 73
     4
 74
     0
 42
0.0000001
 43
0.0000000001
 40
0.0
 40
0.0
 40
0.0
 40
0.0
 40
1.0
 40
1.0
 40
1.0
 40
1.0
 10
179.6948119247624
 20
-269.1894293959556
 30
0.0
 10
180.4048119247625
 20
-269.1594293959554
 30
0.0
 10
180.9148119247627
 20
-268.5894293959553
 30
0.0
 10
181.0648119247623
 20
-267.8594293959557
 30
0.0
  0
SPLINE
  5
DF
330
2
100
AcDbEntity
  8
0_LOGO
100
AcDbSpline
210
0.0
220
0.0
230
1.0
 70
     8
 71
     3
 72
     8
 73
     4
 74
     0
 42
0.0000001
 43
0.0000000001
 40
0.0
 40
0.0
 40
0.0
 40
0.0
 40
1.0
 40
1.0
 40
1.0
 40
1.0
 10
181.0648119247623
 20
-267.8594293959557
 30
0.0
 10
181.1148119247625
 20
-267.6094293959557
 30
0.0
 10
181.0748119247626
 20
-267.3994293959557
 30
0.0
 10
181.0748119247626
 20
-267.3994293959557
 30
0.0
  0
MTEXT
  5
E0
102
{ACAD_XDICTIONARY
360
E1
102
}
330
2
100
AcDbEntity
  8
0_LOGO
100
AcDbMText
 10
22.36220655225837
 20
-263.8055569297861
 30
0.0
 40
2.5
 41
145.1397413359027
 46
0.0
 71
     1
 72
     1
  1
www.maxit.de     
  7
Arial
 73
     1
 44
0.9673603504928809
1001
AcadAnnotative
1000
AnnotativeData
1002
{
1070
     1
1070
     0
1002
}
1001
ACAD
1000
ACAD_MTEXT_COLUMN_INFO_BEGIN
1070
    75
1070
     2
1070
    79
1070
     0
1070
    76
1070
     1
1070
    78
1070
     0
1070
    48
1040
145.1397413359027
1070
    49
1040
1.0
1070
    50
1070
     1
1040
0.0
1000
ACAD_MTEXT_COLUMN_INFO_END
  0
MTEXT
  5
E6
102
{ACAD_XDICTIONARY
360
1E6
102
}
330
2
100
AcDbEntity
  8
0_TEXT
370
    13
100
AcDbMText
 10
22.31837500586083
 20
-210.5029408877757
 30
0.0
 40
1.5
 41
179.0800878668059
 46
0.0
 71
     1
 72
     5
  1
\P\pi54.509;Detailzeichnungen sind nur Empfehlungen und ersetzen keine Fachplanung
  7
Arial
 73
     1
 44
1.0
  0
MTEXT
  5
E8
102
{ACAD_XDICTIONARY
360
1E8
102
}
330
2
100
AcDbEntity
  8
0_TEXT
370
    13
100
AcDbMText
 10
22.31837500586083
 20
-210.5029408877757
 30
0.0
 40
1.5
 41
179.0800878668059
 46
0.0
 71
     1
 72
     5
  1
\P\pi54.509;Detailzeichnungen sind nur Empfehlungen und ersetzen keine Fachplanung
  7
Arial
 73
     1
 44
1.0
  0
MTEXT
  5
E9
102
{ACAD_XDICTIONARY
360
1ED
102
}
330
2
100
AcDbEntity
  8
0_TEXT
440
 33554687
100
AcDbMText
 10
20.87231062893555
 20
-224.0855223548641
 30
0.0
 40
2.5
 41
89.53835105324856
 46
20.88196588620791
 71
     1
 72
     1
  1
 1   Holzständerkonstruktion\P 2   Wärmedämmung\P 3   Konterlattung\P 4   maxit Strohpanel Kalk-Stroh-Putzträgerplatte^I^I \P
  7
Arial
 73
     1
 44
0.9673603504928809
1001
ACAD
1000
ACAD_MTEXT_COLUMN_INFO_BEGIN
1070
    75
1070
     2
1070
    79
1070
     0
1070
    76
1070
     2
1070
    78
1070
     0
1070
    48
1040
89.53835105324856
1070
    49
1040
2.697342498451007
1070
    50
1070
     2
1040
20.88196588620791
1040
0.0
1000
ACAD_MTEXT_COLUMN_INFO_END
1000
ACAD_MTEXT_COLUMNS_BEGIN
1070
    47
1070
     2
1005
1EA
1000
ACAD_MTEXT_COLUMNS_END
  0
LINE
  5
EA
330
2
100
AcDbEntity
  8
0_KONTUR
100
AcDbLine
 10
137.9712697291802
 20
-193.5976585890642
 30
0.0
 11
137.9712697291804
 21
-22.45506666444528
 31
0.0
  0
LINE
  5
EB
330
2
100
AcDbEntity
  8
0_KONTUR
100
AcDbLine
 10
127.0177099069391
 20
-193.5906735395427
 30
0.0
 11
127.0177099069391
 21
-22.43515488973783
 31
0.0
  0
LINE
  5
EC
330
2
100
AcDbEntity
  8
0_KONTUR
100
AcDbLine
 10
67.61770990693911
 20
-70.43515488973783
 30
0.0
 11
118.0177099069392
 21
-70.43515488973806
 31
0.0
  0
LWPOLYLINE
  5
ED
330
2
100
AcDbEntity
  8
0_KONTUR
 62
   253
100
AcDbPolyline
 90
        3
 70
     0
 43
0.0
 10
115.2149684712801
 20
-22.43515488973783
 10
116.9220294201397
 20
-26.24086162129091
 10
118.0177099069392
 20
-25.6386524939556
  0
LWPOLYLINE
  5
EE
330
2
100
AcDbEntity
  8
0_KONTUR
 62
   253
100
AcDbPolyline
 90
        4
 70
     0
 43
0.0
 10
113.5049615024952
 20
-22.43515488973783
 10
113.0452457202162
 20
-26.6051149392252
 10
114.72591311423
 20
-28.67712983217696
 10
118.0177099069391
 20
-29.32337304213827
  0
LWPOLYLINE
  5
EF
330
2
100
AcDbEntity
  8
0_KONTUR
 62
   253
100
AcDbPolyline
 90
        5
 70
     0
 43
0.0
 10
112.0374602722752
 20
-22.43515488973783
 10
110.6608847358384
 20
-27.59412722651685
 10
112.5358509030874
 20
-30.62836619849948
 10
117.1193164625712
 20
-33.97916906772987
 10
117.9450195465335
 20
-33.29265067386571
  0
LWPOLYLINE
  5
F0
330
2
100
AcDbEntity
  8
0_KONTUR
 62
   253
100
AcDbPolyline
 90
        4
 70
     0
 43
0.0
 10
107.8371672898249
 20
-22.43515488973783
 10
106.1588300175986
 20
-30.52566183095753
 10
109.5186839962012
 20
-33.9103000035387
 10
118.0177099069391
 20
-37.06121648312076
  0
LWPOLYLINE
  5
F1
330
2
100
AcDbEntity
  8
0_KONTUR
 62
   253
100
AcDbPolyline
 90
        5
 70
     0
 43
0.0
 10
103.0661391142309
 20
-22.43515488973783
 10
100.3434061757541
 20
-32.03956004866639
 10
105.7730243523476
 20
-39.24795445042726
 10
113.5441647242526
 20
-40.86990328063423
 10
118.017709906939
 20
-41.65530651363208
  0
LINE
  5
F2
330
2
100
AcDbEntity
  8
0_KONTUR
 62
   253
100
AcDbLine
 10
116.8329337084437
 20
-24.43888310910468
 30
0.0
 11
101.6346154126501
 21
-36.55129529526796
 31
0.0
  0
LINE
  5
F3
330
2
100
AcDbEntity
  8
0_KONTUR
100
AcDbLine
 10
118.0177099069391
 20
-25.11815581097569
 30
0.0
 11
118.017709906939
 21
-60.64648760891312
 31
0.0
  0
LINE
  5
F4
330
2
100
AcDbEntity
  8
0_KONTUR
100
AcDbLine
 10
118.0177099069391
 20
-146.7431161226021
 30
0.0
 11
118.017709906939
 21
-182.2714479205395
 31
0.0
  0
LINE
  5
F5
102
{ACAD_XDICTIONARY
360
F6
102
}
330
2
100
AcDbEntity
  8
0_BEM_LIN
100
AcDbLine
 10
104.213050634499
 20
-76.92571373823769
 30
0.0
 11
187.5007364790293
 21
-76.92770777094809
 31
0.0
  0
MTEXT
  5
FA
102
{ACAD_REACTORS
330
1D5
330
1D6
102
}
330
2
100
AcDbEntity
  8
0_TEXT_num
100
AcDbMText
 10
184.825469887299
 20
-76.24237569805389
 30
0.0
 40
3.0
 41
0.0
 46
0.0
 71
     7
 72
     1
  1
2
  7
Arial
 73
     1
 44
0.9673603504928809
  0
MTEXT
  5
FC
330
2
100
AcDbEntity
  8
0_TEXT_num
100
AcDbMText
 10
184.8922130196161
 20
-63.96219787254093
 30
0.0
 40
3.0
 41
0.0
 46
0.0
 71
     7
 72
     1
  1
1
  7
Arial
 73
     1
 44
0.9673603504928809
  0
LINE
  5
FD
330
2
100
AcDbEntity
  8
0_KONTUR
100
AcDbLine
 10
118.0177099069391
 20
-25.11815581097569
 30
0.0
 11
118.0177099069391
 21
-22.43515488973783
 31
0.0
  0
LWPOLYLINE
  5
FE
330
2
100
AcDbEntity
  8
0_MUS_poly
100
AcDbPolyline
 90
       18
 70
     0
 43
0.0
 10
58.56315454276465
 20
-22.41524311503038
 10
58.61770990693923
 20
-22.43515488973783
 10
47.71770990693925
 20
-26.41346843588833
 10
58.61770990693923
 20
-30.39178198203906
 10
47.71770990693925
 20
-34.3700955281898
 10
58.61770990693923
 20
-38.34840907434053
 10
47.71770990693925
 20
-42.32672262049125
 10
58.61770990693923
 20
-46.30503616664175
 10
47.71770990693925
 20
-50.28334971279271
 10
58.61770990693923
 20
-54.26166325894321
 10
47.71770990693925
 20
-58.23997680509371
 10
58.61770990693923
 20
-62.21829035124445
 10
47.71770990693925
 20
-66.19660389739518
 10
58.61770990693923
 20
-70.1749174435459
 10
47.71770990693925
 20
-74.15323098969664
 10
58.61770990693923
 20
-78.13154453584714
 10
47.71770990693925
 20
-82.10985808199763
 10
55.36117211243241
 20
-84.89959103902569
  0
LWPOLYLINE
  5
103
330
2
100
AcDbEntity
  8
0_MUS_poly
100
AcDbPolyline
 90
        9
 70
     0
 43
0.0
 10
55.36117211243241
 20
-84.89959103902569
 10
58.61770990693923
 20
-86.08817162814837
 10
47.71770990693925
 20
-90.0664851742991
 10
58.61770990693923
 20
-94.04479872044984
 10
47.71770990693925
 20
-98.02311226660057
 10
58.61770990693923
 20
-102.001425812751
 10
47.71770990693925
 20
-105.9797393589018
 10
58.61770990693923
 20
-109.958052905052
 10
47.71770990693925
 20
-113.9363664512032
  0
LWPOLYLINE
  5
104
330
2
100
AcDbEntity
  8
0_MUS_poly
100
AcDbPolyline
 90
       22
 70
     0
 43
0.0
 10
127.0177099069391
 20
-113.9562782259107
 10
137.9177099069391
 20
-117.934591772061
 10
127.0177099069391
 20
-121.9129053182121
 10
137.9177099069391
 20
-125.8912188643624
 10
127.0177099069391
 20
-129.8695324105136
 10
137.9177099069391
 20
-133.8478459566639
 10
127.0177099069391
 20
-137.8261595028146
 10
137.9177099069391
 20
-141.8044730489653
 10
127.0177099069391
 20
-145.782786595116
 10
137.9177099069391
 20
-149.7611001412668
 10
127.0177099069391
 20
-153.7394136874171
 10
137.9177099069391
 20
-157.7177272335683
 10
127.0177099069391
 20
-161.6960407797186
 10
137.9177099069391
 20
-165.6743543258698
 10
127.0177099069391
 20
-169.65266787202
 10
137.9177099069391
 20
-173.6309814181703
 10
127.0177099069391
 20
-177.6092949643215
 10
137.9177099069391
 20
-181.5876085104718
 10
127.0177099069391
 20
-185.565922056623
 10
137.9177099069391
 20
-189.5442356027732
 10
127.0177099069391
 20
-193.522549148924
 10
127.2043608204805
 20
-193.5906735395427
  0
LINE
  5
105
330
2
100
AcDbEntity
  8
0_KONTUR
 62
   253
100
AcDbLine
 10
122.1353915803474
 20
-22.43515488973783
 30
0.0
 11
126.7154258671366
 21
-27.7920505078924
 31
0.0
  0
LINE
  5
106
330
2
100
AcDbEntity
  8
0_KONTUR
 62
   253
100
AcDbLine
 10
126.7154258671366
 20
-27.7920505078924
 30
0.0
 11
127.0177099069391
 21
-27.85241218510631
 31
0.0
  0
LWPOLYLINE
  5
107
330
2
100
AcDbEntity
  8
0_KONTUR
 62
   253
100
AcDbPolyline
 90
        3
 70
     0
 43
0.0
 10
122.6858764373687
 20
-22.43515488973783
 10
126.3907669286816
 20
-25.75982040963307
 10
127.0177099069391
 20
-25.96318770059686
  0
LWPOLYLINE
  5
108
330
2
100
AcDbEntity
  8
0_KONTUR
 62
   253
100
AcDbPolyline
 90
        2
 70
     0
 43
0.0
 10
122.9916847074502
 20
-22.43515488973783
 10
127.0177099069391
 20
-25.1486096488223
  0
LWPOLYLINE
  5
109
330
2
100
AcDbEntity
  8
0_KONTUR
 62
   253
100
AcDbPolyline
 90
        5
 70
     0
 43
0.0
 10
122.0595277185924
 20
-74.0054463964653
 10
122.0595277185924
 20
-74.0054463964653
 10
122.0595277185924
 20
-74.0054463964653
 10
124.8689787684337
 20
-62.88298853790736
 10
127.0177099069391
 20
-61.86045497470384
  0
LWPOLYLINE
  5
10A
330
2
100
AcDbEntity
  8
0_KONTUR
 62
   253
100
AcDbPolyline
 90
        4
 70
     0
 43
0.0
 10
127.0177099069391
 20
-60.08356918840362
 10
123.7428206092512
 20
-61.1138778784926
 10
119.6621524028372
 20
-73.79798300979662
 10
118.0177099069392
 20
-76.04591551388928
  0
LWPOLYLINE
  5
10B
330
2
100
AcDbEntity
  8
0_KONTUR
 62
   253
100
AcDbPolyline
 90
        2
 70
     0
 43
0.0
 10
118.0177099069392
 20
-94.30836483605306
 10
119.6455688446597
 20
-84.9195028137329
  0
LWPOLYLINE
  5
10C
330
2
100
AcDbEntity
  8
0_KONTUR
 62
   253
100
AcDbPolyline
 90
        2
 70
     0
 43
0.0
 10
119.6455688446597
 20
-84.9195028137329
 10
119.9346768175286
 20
-83.25203961780069
  0
LWPOLYLINE
  5
10D
330
2
100
AcDbEntity
  8
0_KONTUR
 62
   253
100
AcDbPolyline
 90
        3
 70
     0
 43
0.0
 10
119.9346768175286
 20
-83.25203961780069
 10
120.5835591152792
 20
-80.06738901079513
 10
127.0177099069391
 20
-69.58770660270063
  0
LWPOLYLINE
  5
10E
330
2
100
AcDbEntity
  8
0_KONTUR
 62
   253
100
AcDbPolyline
 90
        2
 70
     0
 43
0.0
 10
122.0595277185924
 20
-74.0054463964653
 10
118.0177099069392
 20
-77.86769129716216
  0
LWPOLYLINE
  5
10F
330
2
100
AcDbEntity
  8
0_KONTUR
 62
   253
100
AcDbPolyline
 90
        6
 70
     0
 43
0.0
 10
127.0177099069391
 20
-128.1658791293756
 10
124.8516528248723
 20
-132.448091005728
 10
122.7373383512744
 20
-135.4665670882339
 10
124.3059626564353
 20
-144.8955725063704
 10
120.7975717744465
 20
-149.8260052533331
 10
118.0177099069392
 20
-153.2985472717235
  0
LWPOLYLINE
  5
110
330
2
100
AcDbEntity
  8
0_KONTUR
 62
   253
100
AcDbPolyline
 90
        3
 70
     0
 43
0.0
 10
127.0177099069391
 20
-129.5127537647648
 10
124.6348738614305
 20
-136.6781783309641
 10
126.2794298864026
 20
-142.0468767775872
  0
LWPOLYLINE
  5
111
330
2
100
AcDbEntity
  8
0_KONTUR
 62
   253
100
AcDbPolyline
 90
        3
 70
     0
 43
0.0
 10
127.0177099069389
 20
-177.5481381172247
 10
124.0344658664557
 20
-180.5685686994583
 10
119.973949292676
 20
-191.9085181638764
  0
LWPOLYLINE
  5
112
330
2
100
AcDbEntity
  8
0_KONTUR
 62
   253
100
AcDbPolyline
 90
        5
 70
     0
 43
0.0
 10
126.2794298864026
 20
-142.0468767775872
 10
125.0512176938081
 20
-145.6136610336232
 10
121.0725330901422
 20
-151.6894487711532
 10
119.5525829974757
 20
-153.0296956977379
 10
118.0177099069392
 20
-156.3258687105725
  0
LWPOLYLINE
  5
113
330
2
100
AcDbEntity
  8
0_KONTUR
 62
   253
100
AcDbPolyline
 90
        3
 70
     0
 43
0.0
 10
118.2272931514644
 20
-189.0354281234357
 10
120.8526127672878
 20
-183.4796894834443
 10
127.0177099069391
 20
-176.5865814312145
  0
LWPOLYLINE
  5
114
330
2
100
AcDbEntity
  8
0_KONTUR
 62
   253
100
AcDbPolyline
 90
        4
 70
     0
 43
0.0
 10
123.2739571956275
 20
-181.1737029674413
 10
123.2739571956275
 20
-181.1737029674413
 10
121.5863436624463
 20
-183.6926331167386
 10
118.6947115743482
 20
-191.9085181638764
  0
LINE
  5
115
330
2
100
AcDbEntity
  8
0_KONTUR
 62
   253
100
AcDbLine
 10
118.017709906939
 20
-163.8298477037387
 30
0.0
 11
124.6935218960819
 21
-148.2309804252225
 31
0.0
  0
LINE
  5
116
330
2
100
AcDbEntity
  8
0_KONTUR
 62
   253
100
AcDbLine
 10
124.6935218960819
 20
-148.2309804252225
 30
0.0
 11
125.1282903903933
 21
-146.9376932223738
 31
0.0
  0
LINE
  5
117
330
2
100
AcDbEntity
  8
0_KONTUR
 62
   253
100
AcDbLine
 10
125.1282903903933
 20
-146.9376932223738
 30
0.0
 11
127.0177099069391
 21
-145.0767345784678
 31
0.0
  0
LINE
  5
118
330
2
100
AcDbEntity
  8
0_KONTUR
 62
   253
100
AcDbLine
 10
123.2739571956275
 20
-181.1737029674413
 30
0.0
 11
127.0177099069392
 21
-177.380310245774
 31
0.0
  0
LINE
  5
119
330
2
100
AcDbEntity
  8
0_KONTUR
100
AcDbLine
 10
140.4712697291803
 20
-193.5906735395427
 30
0.0
 11
140.4712697291802
 21
-22.43515488973783
 31
0.0
  0
MTEXT
  5
11A
330
2
100
AcDbEntity
  8
0_TEXT_num
100
AcDbMText
 10
184.8211183305478
 20
-100.0893113747591
 30
0.0
 40
3.0
 41
0.0
 46
0.0
 71
     7
 72
     1
  1
4
  7
Arial
 73
     1
 44
0.9673603504928809
  0
MTEXT
  5
11B
330
2
100
AcDbEntity
  8
0_TEXT_num
100
AcDbMText
 10
185.3948344149311
 20
-112.0127937428054
 30
0.0
 40
3.0
 41
0.0
 46
0.0
 71
     7
 72
     1
  1
5
  7
Arial
 73
     1
 44
0.9673603504928809
  0
LINE
  5
11C
102
{ACAD_XDICTIONARY
360
11D
102
}
330
2
100
AcDbEntity
  8
0_BEM_LIN
100
AcDbLine
 10
139.4817082396901
 20
-125.2592286292614
 30
0.0
 11
188.0744525634124
 21
-125.3069296972793
 31
0.0
  0
MTEXT
  5
120
330
2
100
AcDbEntity
  8
0_TEXT_num
100
AcDbMText
 10
185.3948344149311
 20
-124.6215960362518
 30
0.0
 40
3.0
 41
0.0
 46
0.0
 71
     7
 72
     1
  1
6
  7
Arial
 73
     1
 44
0.9673603504928809
  0
LINE
  5
121
330
2
100
AcDbEntity
  8
0_BEM_LIN
100
AcDbLine
 10
141.2340798635971
 20
-138.0273319658025
 30
0.0
 11
188.2794018559659
 21
-138.0291569232529
 31
0.0
  0
MTEXT
  5
122
330
2
100
AcDbEntity
  8
0_TEXT_num
100
AcDbMText
 10
185.3948344149311
 20
-137.2303476320529
 30
0.0
 40
3.0
 41
0.0
 46
0.0
 71
     7
 72
     1
  1
7
  7
Arial
 73
     1
 44
0.9673603504928809
  0
LINE
  5
123
330
2
100
AcDbEntity
  8
0_KONTUR
  6
Verdeckt3
 62
   253
 48
20.0
100
AcDbLine
 10
67.61770990693911
 20
-193.5976585890638
 30
0.0
 11
118.0177099069392
 21
-193.5976585890638
 31
0.0
  0
LWPOLYLINE
  5
125
330
2
100
AcDbEntity
  8
0_KONTUR
 62
   253
100
AcDbPolyline
 90
        5
 70
     0
 43
0.0
 10
112.0374602722752
 20
-145.634528377909
 10
110.6608847358384
 20
-150.7935007146878
 10
112.5358509030874
 20
-153.8277396866704
 10
117.1193164625712
 20
-157.1785425559009
 10
117.9450195465335
 20
-156.4920241620374
  0
LWPOLYLINE
  5
126
330
2
100
AcDbEntity
  8
0_KONTUR
 62
   253
100
AcDbPolyline
 90
        4
 70
     0
 43
0.0
 10
107.8371672898249
 20
-145.634528377909
 10
106.1588300175986
 20
-153.7250353191291
 10
109.5186839962012
 20
-157.1096734917099
 10
118.0177099069391
 20
-160.2605899712924
  0
LWPOLYLINE
  5
127
330
2
100
AcDbEntity
  8
0_KONTUR
 62
   253
100
AcDbPolyline
 90
        5
 70
     0
 43
0.0
 10
103.0661391142309
 20
-145.634528377909
 10
100.3434061757541
 20
-155.2389335368378
 10
105.7730243523476
 20
-162.4473279385983
 10
113.5441647242526
 20
-164.0692767688059
 10
118.017709906939
 20
-164.8546800018038
  0
LINE
  5
128
330
2
100
AcDbEntity
  8
0_KONTUR
 62
   253
100
AcDbLine
 10
116.8329337084437
 20
-147.6382565972761
 30
0.0
 11
101.6346154126501
 21
-159.7506687834392
 31
0.0
  0
LINE
  5
129
330
2
100
AcDbEntity
  8
0_KONTUR
100
AcDbLine
 10
67.61770990693911
 20
-145.634528377909
 30
0.0
 11
118.0177099069392
 21
-145.634528377909
 31
0.0
  0
LINE
  5
12A
330
2
100
AcDbEntity
  8
0_KONTUR
100
AcDbLine
 10
118.0177099069392
 20
-33.12748511679804
 30
0.0
 11
118.0177099069392
 21
-193.5976585890638
 31
0.0
  0
LINE
  5
12B
330
2
100
AcDbEntity
  8
0_KONTUR
100
AcDbLine
 10
67.61770990693911
 20
-22.43515488973783
 30
0.0
 11
67.61770990693911
 21
-193.5976585890638
 31
0.0
  0
LINE
  5
12C
330
2
100
AcDbEntity
  8
0_KONTUR
 62
   251
420
  5857635
430
RAL CLASSIC$RAL 7012
370
    30
100
AcDbLine
 10
142.4440763980726
 20
-193.5906735395427
 30
0.0
 11
142.4440763980726
 21
-22.43515488973783
 31
0.0
  0
INSERT
  5
12E
330
2
100
AcDbEntity
  8
0_KONTUR
100
AcDbBlockReference
  2
dübel
 10
-428.0838251073958
 20
756.7590039990351
 30
0.0
  0
INSERT
  5
137
330
2
100
AcDbEntity
  8
0_KONTUR
100
AcDbBlockReference
  2
dübel
 10
-428.0838251073959
 20
638.5766699188133
 30
0.0
  0
LINE
  5
138
330
2
100
AcDbEntity
  8
0_KONTUR
100
AcDbLine
 10
67.61770990693911
 20
-193.5906735395427
 30
0.0
 11
68.21796982506054
 21
-193.5906735395427
 31
0.0
  0
LWPOLYLINE
  5
139
102
{ACAD_XDICTIONARY
360
13A
102
}
330
2
100
AcDbEntity
  8
0_MUS_poly
100
AcDbPolyline
 90
        3
 70
   128
 43
0.0
 10
115.1265782458144
 20
-70.43515488973806
 42
-0.2113003394421586
 10
107.6367343947765
 20
-73.74829239756498
 42
-0.0640982595791125
 10
96.29611768355868
 20
-70.43515488973806
 42
-0.0640982595791125
  0
LWPOLYLINE
  5
13D
330
2
100
AcDbEntity
  8
0_MUS_poly
100
AcDbPolyline
 90
       23
 70
   128
 43
0.0
 10
68.24848441746268
 20
-70.43515488973783
 42
0.5156146867636814
 10
77.81345447804288
 20
-83.8708183869406
 42
0.0857087375213285
 10
92.72509443640977
 20
-78.80955539225268
 42
-0.0857087375213285
 10
107.6367343947765
 20
-73.74829239756498
 42
-0.9999999999999998
 10
107.6367343947765
 20
-93.99334437631486
 42
-0.0857087375213278
 10
92.72509443640977
 20
-88.93208138162716
 42
0.0857087375213278
 10
77.81345447804288
 20
-83.8708183869406
 42
0.9999999999999998
 10
77.81345447804288
 20
-104.1158703656895
 42
0.0857087375213278
 10
92.72509443640977
 20
-99.05460737100186
 42
-0.0857087375213278
 10
107.6367343947765
 20
-93.99334437631486
 42
-0.9999999999999998
 10
107.6367343947765
 20
-114.2383963550636
 42
-0.0857087375213289
 10
92.72509443640977
 20
-109.1771333603772
 42
0.0857087375213278
 10
77.81345447804288
 20
-104.1158703656895
 42
0.9999999999999998
 10
77.81345447804288
 20
-124.360922344439
 42
0.0857087375213283
 10
92.72509443640977
 20
-119.2996593497508
 42
-0.0857087375213282
 10
107.6367343947765
 20
-114.2383963550636
 42
-0.9999999999999998
 10
107.6367343947765
 20
-134.4834483338139
 42
-0.0857087375213286
 10
92.72509443640977
 20
-129.4221853391262
 42
0.0857087375213286
 10
77.81345447804288
 20
-124.360922344439
 42
0.9999999999999998
 10
77.81345447804288
 20
-144.6059743231888
 42
0.0857087375213286
 10
92.72509443640977
 20
-139.5447113285011
 42
-0.0857087375213282
 10
107.6367343947765
 20
-134.4834483338139
 42
-0.4443501687726372
 10
117.7068689004365
 20
-145.634528377909
 42
-0.4443501687726372
  0
LWPOLYLINE
  5
13E
330
2
100
AcDbEntity
  8
0_MUS_poly
100
AcDbPolyline
 90
        3
 70
   128
 43
0.0
 10
82.64745765721112
 20
-145.634528377909
 42
0.0267224167949638
 10
77.81345447804288
 20
-144.6059743231888
 42
0.1141690489446682
 10
73.36764669347939
 20
-145.634528377909
  0
LINE
  5
13F
330
2
100
AcDbEntity
  8
0_KONTUR
  6
Verdeckt3
 62
   253
 48
20.0
100
AcDbLine
 10
118.0177099069392
 20
-193.5976585890638
 30
0.0
 11
151.5403076413997
 21
-193.5976585890638
 31
0.0
  0
LINE
  5
140
330
2
100
AcDbEntity
  8
0_KONTUR
 62
   253
100
AcDbLine
 10
118.6947115743482
 20
-191.9085181638764
 30
0.0
 11
118.0177099069391
 21
-193.2210515473838
 31
0.0
  0
LINE
  5
141
330
2
100
AcDbEntity
  8
0_KONTUR
 62
   253
100
AcDbLine
 10
119.973949292676
 20
-191.9085181638764
 30
0.0
 11
118.3808155349129
 21
-193.5976585890638
 31
0.0
  0
LINE
  5
142
330
2
100
AcDbEntity
  8
0_KONTUR
 62
   253
100
AcDbLine
 10
118.2272931514644
 20
-189.0354281234357
 30
0.0
 11
118.0177099069392
 21
-190.5296623175157
 31
0.0
  0
LINE
  5
143
330
2
100
AcDbEntity
  8
0_KONTUR
100
AcDbLine
 10
47.66415008469799
 20
-193.5906735395427
 30
0.0
 11
47.66415008469787
 21
-22.43515488973783
 31
0.0
  0
LINE
  5
144
330
2
100
AcDbEntity
  8
0_KONTUR
100
AcDbLine
 10
58.61770990693923
 20
-193.5906735395427
 30
0.0
 11
58.61770990693923
 21
-22.43515488973783
 31
0.0
  0
LWPOLYLINE
  5
145
330
2
100
AcDbEntity
  8
0_MUS_poly
100
AcDbPolyline
 90
       22
 70
     0
 43
0.0
 10
58.61770990693923
 20
-113.9562782259107
 10
47.71770990693925
 20
-117.934591772061
 10
58.61770990693923
 20
-121.9129053182121
 10
47.71770990693925
 20
-125.8912188643624
 10
58.61770990693923
 20
-129.8695324105136
 10
47.71770990693925
 20
-133.8478459566639
 10
58.61770990693923
 20
-137.8261595028146
 10
47.71770990693925
 20
-141.8044730489653
 10
58.61770990693923
 20
-145.782786595116
 10
47.71770990693925
 20
-149.7611001412668
 10
58.61770990693923
 20
-153.7394136874171
 10
47.71770990693925
 20
-157.7177272335683
 10
58.61770990693923
 20
-161.6960407797186
 10
47.71770990693925
 20
-165.6743543258698
 10
58.61770990693923
 20
-169.65266787202
 10
47.71770990693925
 20
-173.6309814181703
 10
58.61770990693923
 20
-177.6092949643215
 10
47.71770990693925
 20
-181.5876085104718
 10
58.61770990693923
 20
-185.565922056623
 10
47.71770990693925
 20
-189.5442356027732
 10
58.61770990693923
 20
-193.522549148924
 10
58.43105899339774
 20
-193.5906735395427
  0
LINE
  5
146
330
2
100
AcDbEntity
  8
0_KONTUR
 62
   253
100
AcDbLine
 10
63.50002823353086
 20
-22.43515488973783
 30
0.0
 11
58.91999394674165
 21
-27.7920505078924
 31
0.0
  0
LWPOLYLINE
  5
147
330
2
100
AcDbEntity
  8
0_KONTUR
 62
   253
100
AcDbPolyline
 90
        3
 70
     0
 43
0.0
 10
62.9495433765096
 20
-22.43515488973783
 10
59.24465288519671
 20
-25.75982040963307
 10
58.61770990693923
 20
-25.96318770059686
  0
LWPOLYLINE
  5
148
330
2
100
AcDbEntity
  8
0_KONTUR
 62
   253
100
AcDbPolyline
 90
        2
 70
     0
 43
0.0
 10
62.64373510642814
 20
-22.43515488973783
 10
58.61770990693923
 20
-25.1486096488223
  0
LWPOLYLINE
  5
149
330
2
100
AcDbEntity
  8
0_KONTUR
 62
   253
100
AcDbPolyline
 90
        5
 70
     0
 43
0.0
 10
63.57589209528588
 20
-53.82764194092335
 10
63.57589209528588
 20
-53.82764194092335
 10
63.57589209528588
 20
-53.82764194092335
 10
60.76644104544458
 20
-42.70518408236542
 10
58.61770990693923
 20
-41.68265051916189
  0
LWPOLYLINE
  5
14A
330
2
100
AcDbEntity
  8
0_KONTUR
 62
   253
100
AcDbPolyline
 90
        4
 70
     0
 43
0.0
 10
58.61770990693923
 20
-39.90576473286167
 10
61.8925992046271
 20
-40.93607342295065
 10
65.97326741104108
 20
-53.62017855425468
 10
67.61770990693911
 20
-55.86811105834733
  0
LWPOLYLINE
  5
14B
330
2
100
AcDbEntity
  8
0_KONTUR
 62
   253
100
AcDbPolyline
 90
        2
 70
     0
 43
0.0
 10
67.61770990693911
 20
-74.13056038051111
 10
65.98985096921864
 20
-64.74169835819096
  0
LWPOLYLINE
  5
14C
330
2
100
AcDbEntity
  8
0_KONTUR
 62
   253
100
AcDbPolyline
 90
        2
 70
     0
 43
0.0
 10
65.98985096921864
 20
-64.74169835819096
 10
65.70074299634971
 20
-63.07423516225874
  0
LWPOLYLINE
  5
14D
330
2
100
AcDbEntity
  8
0_KONTUR
 62
   253
100
AcDbPolyline
 90
        3
 70
     0
 43
0.0
 10
65.70074299634971
 20
-63.07423516225874
 10
65.05186069859904
 20
-59.88958455525319
 10
58.61770990693923
 20
-49.40990214715869
  0
LWPOLYLINE
  5
14E
330
2
100
AcDbEntity
  8
0_KONTUR
 62
   253
100
AcDbPolyline
 90
        2
 70
     0
 43
0.0
 10
63.57589209528588
 20
-53.82764194092335
 10
67.61770990693911
 20
-57.68988684162021
  0
LWPOLYLINE
  5
14F
330
2
100
AcDbEntity
  8
0_KONTUR
 62
   253
100
AcDbPolyline
 90
        3
 70
     0
 43
0.0
 10
58.61770990693923
 20
-177.5488910600869
 10
61.57698364207589
 20
-174.626050923838
 10
67.61770990693911
 20
-172.4630369533519
  0
LWPOLYLINE
  5
150
330
2
100
AcDbEntity
  8
0_KONTUR
 62
   253
100
AcDbPolyline
 90
        3
 70
     0
 43
0.0
 10
67.61770990693911
 20
-169.9653279225489
 10
64.48810442606189
 20
-171.4441978246703
 10
58.61770990693923
 20
-176.6945946245231
  0
LWPOLYLINE
  5
151
330
2
100
AcDbEntity
  8
0_KONTUR
 62
   253
100
AcDbPolyline
 90
        4
 70
     0
 43
0.0
 10
62.18211791005886
 20
-173.8655422530099
 10
62.18211791005886
 20
-173.8655422530099
 10
64.70104805935624
 20
-172.1779287198286
 10
67.61770990693911
 20
-171.1513913546863
  0
LINE
  5
152
330
2
100
AcDbEntity
  8
0_KONTUR
 62
   253
100
AcDbLine
 10
62.18211791005886
 20
-173.8655422530099
 30
0.0
 11
58.61770990693923
 21
-177.3833067200738
 31
0.0
  0
LINE
  5
153
330
2
100
AcDbEntity
  8
0_KONTUR
100
AcDbLine
 10
45.16415008469799
 20
-193.5906735395427
 30
0.0
 11
45.1641500846981
 21
-22.43515488973783
 31
0.0
  0
LINE
  5
154
330
2
100
AcDbEntity
  8
0_KONTUR
 62
   251
420
  5857635
430
RAL CLASSIC$RAL 7012
370
    30
100
AcDbLine
 10
43.51413155061457
 20
-193.5906735395427
 30
0.0
 11
43.51413155061457
 21
-22.43515488973783
 31
0.0
  0
INSERT
  5
155
330
2
100
AcDbEntity
  8
0_KONTUR
100
AcDbBlockReference
  2
dübel
 10
613.7728047435155
 20
756.7590039990351
 30
0.0
 41
-1.0
  0
INSERT
  5
156
330
2
100
AcDbEntity
  8
0_KONTUR
100
AcDbBlockReference
  2
dübel
 10
613.7192449212745
 20
638.5766699188133
 30
0.0
 41
-1.0
  0
MTEXT
  5
157
102
{ACAD_XDICTIONARY
360
1EF
102
}
330
2
100
AcDbEntity
  8
0_TEXT_weiß
100
AcDbMText
 10
234.9609979175395
 20
0.4388688493244075
 30
0.0
 40
3.5
 41
205.8970801939903
 46
9.376534661605241
 71
     9
 72
     1
  1
maxit Strohpanel Kalk-Stroh-Putzträgerplatte - Trennwand/Innenwand\P{\H0.71429x;Variante Armierungsspachtel}                                {\H1.0833x; }
  7
Arial
 73
     1
 44
1.0
  0
MTEXT
  5
159
330
2
100
AcDbEntity
  8
0_TEXT_weiß
100
AcDbMText
 10
213.8784235502835
 20
1.412494069422493
 30
0.0
 40
10.0
 41
0.0
 46
0.0
 71
     9
 72
     1
  1
{\fArial|b1|i0|c0|p34;5}
 73
     1
 44
1.0
  0
MTEXT
  5
15B
330
2
100
AcDbEntity
  8
0_TEXT_weiß
100
AcDbMText
 10
21.85074372821212
 20
4.872459340498309
 30
0.0
 40
3.5
 41
6.956152984821983
 46
0.0
 71
     9
 72
     1
  1
{\fArial|b0|i0|c0|p34;5.2.40}
 73
     1
 44
1.0
  0
LINE
  5
15C
330
2
100
AcDbEntity
  8
0_KONTUR
  6
Verdeckt3
 62
   253
 48
20.0
100
AcDbLine
 10
68.21796982506054
 20
-193.5906735395427
 30
0.0
 11
32.71949732644792
 21
-193.5906735395427
 31
0.0
  0
LINE
  5
15D
330
2
100
AcDbEntity
  8
0_KONTUR
  6
Verdeckt3
 62
   253
 48
20.0
100
AcDbLine
 10
151.5403076413997
 20
-22.43515488973783
 30
0.0
 11
32.71949732644792
 21
-22.43515488973783
 31
0.0
  0
LINE
  5
15E
102
{ACAD_XDICTIONARY
360
15F
102
}
330
2
100
AcDbEntity
  8
0_BEM_LIN
100
AcDbLine
 10
122.0555277697283
 20
-88.8491823706566
 30
0.0
 11
187.5007364790293
 21
-88.851176403367
 31
0.0
  0
MTEXT
  5
162
330
2
100
AcDbEntity
  8
0_TEXT_num
100
AcDbMText
 10
184.825469887299
 20
-88.1658443304728
 30
0.0
 40
3.0
 41
0.0
 46
0.0
 71
     7
 72
     1
  1
3
  7
Arial
 73
     1
 44
0.9673603504928809
  0
LINE
  5
163
102
{ACAD_XDICTIONARY
360
164
102
}
330
2
100
AcDbEntity
  8
0_BEM_LIN
100
AcDbLine
 10
132.9701397218803
 20
-100.7727486645565
 30
0.0
 11
187.5007364790293
 21
-100.7746450357861
 31
0.0
  0
LINE
  5
167
102
{ACAD_XDICTIONARY
360
168
102
}
330
2
100
AcDbEntity
  8
0_BEM_LIN
100
AcDbLine
 10
132.6868662332351
 20
-112.6961203593503
 30
0.0
 11
187.5004510132221
 21
-112.6981136613711
 31
0.0
  0
LINE
  5
16B
330
2
100
AcDbEntity
  8
0_BEM_LIN
100
AcDbLine
 10
132.6868662332351
 20
-112.6961203593503
 30
0.0
 11
132.6868662332351
 21
-164.5304279639666
 31
0.0
  0
LWPOLYLINE
  5
16C
330
2
100
AcDbEntity
  8
0_MUS_poly
100
AcDbPolyline
 90
        8
 70
     0
 43
0.0
 10
137.9712697291804
 20
-22.41524311503038
 10
138.025825093355
 20
-22.43515488973783
 10
127.125825093355
 20
-26.41346843588833
 10
138.025825093355
 20
-30.39178198203906
 10
127.125825093355
 20
-34.3700955281898
 10
138.025825093355
 20
-38.34840907434053
 10
127.125825093355
 20
-42.32672262049125
 10
137.0922606709133
 20
-45.96430112187074
  0
LWPOLYLINE
  5
16D
330
2
100
AcDbEntity
  8
0_MUS_poly
100
AcDbPolyline
 90
       11
 70
     0
 43
0.0
 10
136.9831499425647
 20
-46.68559476082744
 10
127.125825093355
 20
-50.28334971279271
 10
138.025825093355
 20
-54.26166325894321
 10
127.125825093355
 20
-58.23997680509371
 10
138.025825093355
 20
-62.21829035124445
 10
127.125825093355
 20
-66.19660389739518
 10
138.025825093355
 20
-70.1749174435459
 10
127.125825093355
 20
-74.15323098969664
 10
138.025825093355
 20
-78.13154453584714
 10
127.125825093355
 20
-82.10985808199763
 10
134.7692872988482
 20
-84.89959103902569
  0
LWPOLYLINE
  5
16E
330
2
100
AcDbEntity
  8
0_MUS_poly
100
AcDbPolyline
 90
        9
 70
     0
 43
0.0
 10
134.7692872988482
 20
-84.89959103902569
 10
138.025825093355
 20
-86.08817162814837
 10
127.125825093355
 20
-90.0664851742991
 10
138.025825093355
 20
-94.04479872044984
 10
127.125825093355
 20
-98.02311226660057
 10
138.025825093355
 20
-102.001425812751
 10
127.125825093355
 20
-105.9797393589018
 10
138.025825093355
 20
-109.958052905052
 10
127.125825093355
 20
-113.9363664512032
  0
LINE
  5
16F
102
{ACAD_XDICTIONARY
360
170
102
}
102
{ACAD_REACTORS
330
1D4
102
}
330
2
100
AcDbEntity
  8
0_BEM_LIN
100
AcDbLine
 10
92.53264045072931
 20
-65.00423913852917
 30
0.0
 11
187.5007364790293
 21
-65.00423913852917
 31
0.0
  0
LINE
  5
173
330
2
100
AcDbEntity
  8
0_KONTUR
  6
Verdeckt3
 62
   253
 48
30.0
100
AcDbLine
 10
139.4096752783878
 20
-193.5976585890638
 30
0.0
 11
139.4096752783878
 21
-22.43515488973786
 31
0.0
  0
LINE
  5
174
330
2
100
AcDbEntity
  8
0_KONTUR
  6
Verdeckt3
 62
   253
 48
30.0
100
AcDbLine
 10
46.42248328653862
 20
-193.623425271231
 30
0.0
 11
45.85126045446621
 21
-22.4351548897374
 31
0.0
  0
HATCH
  5
175
330
2
100
AcDbEntity
  8
0_KREIS
100
AcDbHatch
 10
0.0
 20
0.0
 30
0.0
210
0.0
220
0.0
230
1.0
  2
SOLID
 70
     1
 71
     1
 91
        1
 92
        7
 72
     1
 73
     1
 93
        2
 10
133.3691235011115
 20
-164.5507305528984
 42
1.0
 10
132.0691235011115
 20
-164.5507305528984
 42
1.0
 97
        1
330
176
 75
     1
 76
     1
 47
0.0197071038192871
 98
        1
 10
139.5175532956107
 20
-164.3058609754292
450
        0
451
        0
460
0.0
461
0.0
452
        0
462
1.0
453
        2
463
0.0
 63
     5
421
      255
463
1.0
 63
     2
421
 16776960
470
LINEAR
1001
GradientColor1ACI
1070
     5
1001
GradientColor2ACI
1070
     2
1001
ACAD
1010
0.0
1020
0.0
1030
0.0
  0
CIRCLE
  5
176
102
{ACAD_REACTORS
330
175
102
}
330
2
100
AcDbEntity
  8
0_KREIS
100
AcDbCircle
 10
132.7191235011116
 20
-164.5507305528984
 30
0.0
 40
0.65
  0
HATCH
  5
177
330
2
100
AcDbEntity
  8
0_KREIS
100
AcDbHatch
 10
0.0
 20
0.0
 30
0.0
210
0.0
220
0.0
230
1.0
  2
SOLID
 70
     1
 71
     1
 91
        1
 92
        7
 72
     1
 73
     1
 93
        2
 10
139.0296445409615
 20
-125.3043620199937
 42
1.0
 10
140.3296445409614
 20
-125.3043620199937
 42
1.0
 97
        1
330
178
 75
     1
 76
     1
 47
0.0197071038192871
 98
        1
 10
139.7316136182896
 20
-125.0594924425245
450
        0
451
        0
460
0.0
461
0.0
452
        0
462
1.0
453
        2
463
0.0
 63
     5
421
      255
463
1.0
 63
     2
421
 16776960
470
LINEAR
1001
GradientColor1ACI
1070
     5
1001
GradientColor2ACI
1070
     2
1001
ACAD
1010
0.0
1020
0.0
1030
0.0
  0
CIRCLE
  5
178
102
{ACAD_REACTORS
330
177
102
}
330
2
100
AcDbEntity
  8
0_KREIS
100
AcDbCircle
 10
139.6796445409616
 20
-125.3043620199937
 30
0.0
 40
0.65
  0
MTEXT
  5
1EA
102
{ACAD_XDICTIONARY
360
1EB
102
}
330
2
100
AcDbEntity
  8
0_TEXT
440
 33554687
100
AcDbMText
 10
113.1080041806351
 20
-224.0855223548641
 30
0.0
 40
2.5
 41
89.53835105324856
 46
0.0
 71
     1
 72
     1
  3
 5   Befestigungsmittel (Schrauben, Klammern)\P{\T1.05; }6   Klebe- und Armierungsspachtelung aus\P      maxit multi 340 und maxit Armierungsgewebe\P      Jute in einer Auftragsdicke von 3 - 6 mm \P 7   maxit ip 339 (Lehmputz fein) 5 mm, Oberfläche g
  1
efilzt \P {\C7; \P }
  7
Arial
 73
     1
 44
0.9673603504928809
1001
ACAD
1000
ACAD_MTEXT_COLUMN_INFO_BEGIN
1070
    75
1070
     2
1070
    79
1070
     0
1070
    76
1070
     2
1070
    78
1070
     0
1070
    48
1040
89.53835105324856
1070
    49
1040
2.697342498451007
1070
    50
1070
     2
1040
20.88196588620791
1040
0.0
1000
ACAD_MTEXT_COLUMN_INFO_END
  0
VIEWPORT
  5
180
330
17E
100
AcDbEntity
 67
     1
  8
0
100
AcDbViewport
 10
576.7062988281249
 20
414.7062501907347
 30
0.0
 40
1779.248692791725
 41
847.3631778058006
 68
     1
 69
     1
 12
576.7062988281249
 22
414.7062501907347
 13
0.0
 23
0.0
 14
10.0
 24
10.0
 15
10.0
 25
10.0
 16
0.0
 26
0.0
 36
1.0
 17
0.0
 27
0.0
 37
0.0
 42
50.0
 43
0.0
 44
0.0
 45
847.3631778058006
 50
0.0
 51
0.0
 72
  1000
 90
    32800
  1

281
     0
 71
     1
 74
     0
110
0.0
120
0.0
130
0.0
111
1.0
121
0.0
131
0.0
112
0.0
122
1.0
132
0.0
 79
     0
146
0.0
170
     0
 61
     5
348
182
292
     1
282
     1
141
0.0
142
0.0
 63
   250
421
  3355443
  0
ENDSEC
  0
SECTION
  2
OBJECTS
  0
DICTIONARY
  5
A
330
0
100
AcDbDictionary
281
     1
  3
ACAD_ASSOCNETWORK
350
1D9
  3
ACAD_COLOR
350
14
  3
ACAD_FIELDLIST
350
1D7
  3
ACAD_GROUP
350
1A9
  3
ACAD_LAYOUT
350
17B
  3
ACAD_MATERIAL
350
C
  3
ACAD_MLEADERSTYLE
350
1B0
  3
ACAD_MLINESTYLE
350
1AA
  3
ACAD_PLOTSETTINGS
350
1AB
  3
ACAD_PLOTSTYLENAME
350
9
  3
ACAD_SCALELIST
350
1AE
  3
ACAD_TABLESTYLE
350
1AF
  3
ACAD_VISUALSTYLE
350
183
  3
ACDB_RECOMPOSE_DATA
350
1F5
  3
AcDbVariableDictionary
350
1DD
  0
DICTIONARY
  5
188
330
187
100
AcDbDictionary
280
     1
281
     1
  3
ACAD_LAYERFILTERS
360
189
  3
ACAD_LAYERSTATES
360
18A
  3
ACLYDICTIONARY
360
18B
  0
DICTIONARY
  5
56
330
55
100
AcDbDictionary
280
     1
281
     1
  3
PALLADIOX2006_REFURBISH_DATA
360
57
  0
DICTIONARY
  5
1A
330
19
100
AcDbDictionary
280
     1
281
     1
  0
DICTIONARY
  5
1D
330
1C
100
AcDbDictionary
280
     1
281
     1
  0
DICTIONARY
  5
100
330
FF
100
AcDbDictionary
280
     1
281
     1
  3
PALLADIOX2006_REFURBISH_DATA
360
101
  0
DICTIONARY
  5
3
330
2
100
AcDbDictionary
280
     1
281
     1
  3
ACAD_ASSOCNETWORK
360
4
  3
ACAD_SORTENTS
360
1D0
  0
DICTIONARY
  5
E1
330
E0
100
AcDbDictionary
280
     1
281
     1
  3
AcDbContextDataManager
360
E2
  0
DICTIONARY
  5
1E6
330
E6
100
AcDbDictionary
280
     1
281
     1
  3
ACAD_MTEXT_2008_RT
360
1E7
  0
DICTIONARY
  5
1E8
330
E8
100
AcDbDictionary
280
     1
281
     1
  3
ACAD_MTEXT_2008_RT
360
1E9
  0
DICTIONARY
  5
1ED
330
E9
100
AcDbDictionary
280
     1
281
     1
  3
ACAD_MTEXT_2008_RT
360
1EE
  0
DICTIONARY
  5
F6
330
F5
100
AcDbDictionary
280
     1
281
     1
  3
PALLADIOX2006_GEOMETRY_DATA
360
F7
  3
PALLADIOX2006_MARKER_DATA
360
F8
  0
DICTIONARY
  5
11D
330
11C
100
AcDbDictionary
280
     1
281
     1
  3
PALLADIOX2006_GEOMETRY_DATA
360
11E
  3
PALLADIOX2006_MARKER_DATA
360
11F
  0
DICTIONARY
  5
13A
330
139
100
AcDbDictionary
280
     1
281
     1
  3
PALLADIOX2006_GEOMETRY_DATA
360
13B
  3
PALLADIOX2006_MARKER_DATA
360
13C
  0
DICTIONARY
  5
1EF
330
157
100
AcDbDictionary
280
     1
281
     1
  3
ACAD_MTEXT_2008_RT
360
1F0
  0
DICTIONARY
  5
15F
330
15E
100
AcDbDictionary
280
     1
281
     1
  3
PALLADIOX2006_GEOMETRY_DATA
360
160
  3
PALLADIOX2006_MARKER_DATA
360
161
  0
DICTIONARY
  5
164
330
163
100
AcDbDictionary
280
     1
281
     1
  3
PALLADIOX2006_GEOMETRY_DATA
360
165
  3
PALLADIOX2006_MARKER_DATA
360
166
  0
DICTIONARY
  5
168
330
167
100
AcDbDictionary
280
     1
281
     1
  3
PALLADIOX2006_GEOMETRY_DATA
360
169
  3
PALLADIOX2006_MARKER_DATA
360
16A
  0
DICTIONARY
  5
170
330
16F
100
AcDbDictionary
280
     1
281
     1
  3
PALLADIOX2006_GEOMETRY_DATA
360
171
  3
PALLADIOX2006_MARKER_DATA
360
172
  0
DICTIONARY
  5
1EB
330
1EA
100
AcDbDictionary
280
     1
281
     1
  3
ACAD_MTEXT_2008_RT
360
1EC
  0
DICTIONARY
  5
1D9
102
{ACAD_REACTORS
330
A
102
}
330
A
100
AcDbDictionary
281
     1
  3
ACAD_ASSOCNETWORK
350
1DA
  0
DICTIONARY
  5
14
102
{ACAD_REACTORS
330
A
102
}
330
A
100
AcDbDictionary
281
     1
  3
PANTONE f + h Cotton$PANTONE 12-5507 TCX
350
13
  3
RAL CLASSIC$RAL 7012
350
12D
  3
RAL CLASSIC$RAL 7047
350
37
  0
FIELDLIST
  5
1D7
102
{ACAD_REACTORS
330
A
102
}
330
A
100
AcDbIdSet
 90
        0
100
AcDbFieldList
  0
DICTIONARY
  5
1A9
102
{ACAD_REACTORS
330
A
102
}
330
A
100
AcDbDictionary
281
     1
  0
DICTIONARY
  5
17B
102
{ACAD_REACTORS
330
A
102
}
330
A
100
AcDbDictionary
281
     1
  3
Layout
350
185
  3
Model
350
17A
  0
DICTIONARY
  5
C
102
{ACAD_REACTORS
330
A
102
}
330
A
100
AcDbDictionary
281
     1
  3
ByBlock
350
1AD
  3
ByLayer
350
1AC
  3
Global
350
B
  0
DICTIONARY
  5
1B0
102
{ACAD_REACTORS
330
A
102
}
330
A
100
AcDbDictionary
281
     1
  0
DICTIONARY
  5
1AA
102
{ACAD_REACTORS
330
A
102
}
330
A
100
AcDbDictionary
281
     1
  3
Standard
350
1B2
  0
DICTIONARY
  5
1AB
102
{ACAD_REACTORS
330
A
102
}
330
A
100
AcDbDictionary
281
     1
  0
ACDBDICTIONARYWDFLT
  5
9
102
{ACAD_REACTORS
330
A
102
}
330
A
100
AcDbDictionary
281
     1
  3
Color_7
350
102
  3
Normal
350
8
100
AcDbDictionaryWithDefault
340
8
  0
DICTIONARY
  5
1AE
102
{ACAD_REACTORS
330
A
102
}
330
A
100
AcDbDictionary
281
     1
  3
A0
350
1BA
  3
A1
350
1BB
  3
A2
350
1BC
  3
A3
350
1BD
  3
A4
350
1BE
  3
A5
350
1BF
  3
A6
350
1C0
  3
A7
350
1C1
  3
A8
350
1C2
  3
A9
350
1C3
  3
B0
350
1C4
  3
B1
350
1C5
  3
B2
350
1C6
  3
B3
350
1C7
  3
B4
350
1C8
  3
B5
350
1C9
  3
B6
350
1CA
  3
B7
350
1CB
  3
B8
350
1CC
  3
B9
350
1CD
  3
C0
350
1CE
  0
DICTIONARY
  5
1AF
102
{ACAD_REACTORS
330
A
102
}
330
A
100
AcDbDictionary
281
     1
  3
Bauelement Legende
350
1B3
  3
Standard
350
1B8
  0
DICTIONARY
  5
183
102
{ACAD_REACTORS
330
A
102
}
330
A
100
AcDbDictionary
281
     1
  3
2dWireframe
350
182
  3
3dWireframe
350
1B7
  3
Realistic
350
1B6
  0
XRECORD
  5
1F5
102
{ACAD_REACTORS
330
A
102
}
330
A
100
AcDbXrecord
280
     1
 90
        1
330
E0
330
E6
330
E8
330
E9
330
157
330
1B3
330
1B8
330
1D3
  0
DICTIONARY
  5
1DD
102
{ACAD_REACTORS
330
A
102
}
330
A
100
AcDbDictionary
281
     1
  3
CANNOSCALE
350
1E3
  3
CMLEADERSTYLE
350
1DF
  3
CTABLESTYLE
350
1DE
  3
CVIEWDETAILSTYLE
350
1E0
  3
CVIEWSECTIONSTYLE
350
1E1
  3
LAYERNOTIFY
350
1E4
  3
MSLTSCALE
350
1E2
  0
DICTIONARY
  5
189
102
{ACAD_REACTORS
330
188
102
}
330
188
100
AcDbDictionary
281
     1
  0
DICTIONARY
  5
18A
102
{ACAD_REACTORS
330
188
102
}
330
188
100
AcDbDictionary
281
     1
  0
DICTIONARY
  5
18B
102
{ACAD_REACTORS
330
188
102
}
330
188
100
AcDbDictionary
281
     1
1001
ACAD
1000
<All
  0
XRECORD
  5
57
102
{ACAD_REACTORS
330
56
102
}
330
56
100
AcDbXrecord
280
     1
280
     1
330
0
330
0
  1
_HILFE
 70
    19
 70
     0
  0
XRECORD
  5
101
102
{ACAD_REACTORS
330
100
102
}
330
100
100
AcDbXrecord
280
     1
280
     2
330
0
330
0
  1
Dämmung
 70
    19
 70
     0
  0
DICTIONARY
  5
4
102
{ACAD_REACTORS
330
3
102
}
330
3
100
AcDbDictionary
281
     1
  3
ACAD_ASSOCNETWORK
350
1D8
  0
SORTENTSTABLE
  5
1D0
102
{ACAD_REACTORS
330
3
102
}
330
3
100
AcDbSortentsTable
330
2
  0
DICTIONARY
  5
E2
102
{ACAD_REACTORS
330
E1
102
}
330
E1
100
AcDbDictionary
281
     1
  3
ACDB_ANNOTATIONSCALES
350
E3
  0
XRECORD
  5
1E7
102
{ACAD_REACTORS
330
1E6
102
}
330
1E6
100
AcDbXrecord
280
     1
 40
330682.0
  1
\P\pxqd;Detailzeichnungen sind nur Empfehlungen und ersetzen keine Fachplanung
  0
XRECORD
  5
1E9
102
{ACAD_REACTORS
330
1E8
102
}
330
1E8
100
AcDbXrecord
280
     1
 40
330682.0
  1
\P\pxqd;Detailzeichnungen sind nur Empfehlungen und ersetzen keine Fachplanung
  0
XRECORD
  5
1EE
102
{ACAD_REACTORS
330
1ED
102
}
330
1ED
100
AcDbXrecord
280
     1
 40
714104.0
  1
\pxqj; 1   Holzständerkonstruktion\P 2   Wärmedämmung\P 3   Konterlattung\P 4   maxit Strohpanel Kalk-Stroh-Putzträgerplatte^I^I \P
  0
XRECORD
  5
F7
102
{ACAD_REACTORS
330
F6
102
}
330
F6
100
AcDbXrecord
280
     1
 70
     2
 40
29.5171875
 40
66.60000000000002
 40
0.0
 40
12.0
 40
66.60000000000002
 40
0.0
 40
47.034375
 40
66.60000000000002
 40
0.0
 40
0.0
  0
XRECORD
  5
F8
102
{ACAD_REACTORS
330
F6
102
}
330
F6
100
AcDbXrecord
280
     1
280
     1
290
     0
290
     0
290
     0
  0
XRECORD
  5
11E
102
{ACAD_REACTORS
330
11D
102
}
330
11D
100
AcDbXrecord
280
     1
 70
     2
 40
29.5171875
 40
66.60000000000002
 40
0.0
 40
12.0
 40
66.60000000000002
 40
0.0
 40
47.034375
 40
66.60000000000002
 40
0.0
 40
0.0
  0
XRECORD
  5
11F
102
{ACAD_REACTORS
330
11D
102
}
330
11D
100
AcDbXrecord
280
     1
280
     1
290
     0
290
     0
290
     0
  0
XRECORD
  5
13B
102
{ACAD_REACTORS
330
13A
102
}
330
13A
100
AcDbXrecord
280
     1
 70
     2
 40
17.00254548017317
 40
27.37097037897333
 40
0.0
 40
1.0
 40
0.0
 40
0.0
 40
0.0
 40
0.0
 40
1.0
 40
0.0
 40
0.0
 40
0.0
 40
0.0
 40
1.0
 40
0.0
 70
    80
 40
17.45237395129555
 40
80.76791465576048
 40
0.0
 40
-0.4142135623730909
 40
0.0
 40
0.0
 40
15.44731879557042
 40
78.76285950003527
 40
0.0
 40
-0.0857087375213286
 40
0.0
 40
0.0
 40
12.49364294329563
 40
79.76538707789785
 40
0.0
 40
0.0857087375213278
 40
0.0
 40
0.0
 40
9.539967091020793
 40
80.76791465576048
 40
0.0
 40
0.9999999999999998
 40
0.0
 40
0.0
 40
9.539967091020793
 40
76.75780434431006
 40
0.0
 40
0.0857087375213285
 40
0.0
 40
0.0
 40
12.49364294329563
 40
77.76033192217266
 40
0.0
 40
-0.0857087375213285
 40
0.0
 40
0.0
 40
15.44731879557042
 40
78.76285950003527
 40
0.0
 40
-0.9999999999999998
 40
0.0
 40
0.0
 40
15.44731879557042
 40
74.75274918858483
 40
0.0
 40
-0.0857087375213278
 40
0.0
 40
0.0
 40
12.49364294329563
 40
75.75527676644745
 40
0.0
 40
0.0857087375213278
 40
0.0
 40
0.0
 40
9.539967091020793
 40
76.75780434431006
 40
0.0
 40
0.9999999999999998
 40
0.0
 40
0.0
 40
9.539967091020793
 40
72.74769403285962
 40
0.0
 40
0.0857087375213278
 40
0.0
 40
0.0
 40
12.49364294329563
 40
73.7502216107222
 40
0.0
 40
-0.0857087375213278
 40
0.0
 40
0.0
 40
15.44731879557042
 40
74.75274918858483
 40
0.0
 40
-0.9999999999999998
 40
0.0
 40
0.0
 40
15.44731879557042
 40
70.74263887713442
 40
0.0
 40
-0.0857087375213289
 40
0.0
 40
0.0
 40
12.49364294329563
 40
71.74516645499699
 40
0.0
 40
0.0857087375213278
 40
0.0
 40
0.0
 40
9.539967091020793
 40
72.74769403285962
 40
0.0
 40
0.9999999999999998
 40
0.0
 40
0.0
 40
9.539967091020793
 40
68.73758372140918
 40
0.0
 40
0.0857087375213283
 40
0.0
 40
0.0
 40
12.49364294329563
 40
69.74011129927181
 40
0.0
 40
-0.0857087375213282
 40
0.0
 40
0.0
 40
15.44731879557042
 40
70.74263887713442
 40
0.0
 40
-0.9999999999999998
 40
0.0
 40
0.0
 40
15.44731879557042
 40
66.73252856568398
 40
0.0
 40
-0.0857087375213286
 40
0.0
 40
0.0
 40
12.49364294329563
 40
67.73505614354658
 40
0.0
 40
0.0857087375213286
 40
0.0
 40
0.0
 40
9.539967091020793
 40
68.73758372140918
 40
0.0
 40
0.9999999999999998
 40
0.0
 40
0.0
 40
9.539967091020793
 40
64.72747340995876
 40
0.0
 40
0.0857087375213286
 40
0.0
 40
0.0
 40
12.49364294329563
 40
65.73000098782138
 40
0.0
 40
-0.0857087375213282
 40
0.0
 40
0.0
 40
15.44731879557042
 40
66.73252856568398
 40
0.0
 40
-0.9999999999999998
 40
0.0
 40
0.0
 40
15.44731879557042
 40
62.72241825423354
 40
0.0
 40
-0.0857087375213286
 40
0.0
 40
0.0
 40
12.49364294329563
 40
63.72494583209617
 40
0.0
 40
0.0857087375213286
 40
0.0
 40
0.0
 40
9.539967091020793
 40
64.72747340995876
 40
0.0
 40
0.9999999999999998
 40
0.0
 40
0.0
 40
9.539967091020793
 40
60.71736309850834
 40
0.0
 40
0.0857087375213285
 40
0.0
 40
0.0
 40
12.49364294329563
 40
61.71989067637096
 40
0.0
 40
-0.0857087375213286
 40
0.0
 40
0.0
 40
15.44731879557042
 40
62.72241825423354
 40
0.0
 40
-0.9999999999999998
 40
0.0
 40
0.0
 40
15.44731879557042
 40
58.71230794278313
 40
0.0
 40
-0.0857087375213286
 40
0.0
 40
0.0
 40
12.49364294329563
 40
59.71483552064572
 40
0.0
 40
0.0857087375213286
 40
0.0
 40
0.0
 40
9.539967091020793
 40
60.71736309850834
 40
0.0
 40
0.9999999999999998
 40
0.0
 40
0.0
 40
9.539967091020793
 40
56.7072527870579
 40
0.0
 40
0.0857087375213286
 40
0.0
 40
0.0
 40
12.49364294329563
 40
57.70978036492052
 40
0.0
 40
-0.0857087375213286
 40
0.0
 40
0.0
 40
15.44731879557042
 40
58.71230794278313
 40
0.0
 40
-0.9999999999999998
 40
0.0
 40
0.0
 40
15.44731879557042
 40
54.70219763133271
 40
0.0
 40
-0.0857087375213286
 40
0.0
 40
0.0
 40
12.49364294329563
 40
55.7047252091953
 40
0.0
 40
0.0857087375213286
 40
0.0
 40
0.0
 40
9.539967091020793
 40
56.7072527870579
 40
0.0
 40
0.9999999999999998
 40
0.0
 40
0.0
 40
9.539967091020793
 40
52.69714247560746
 40
0.0
 40
0.0857087375213286
 40
0.0
 40
0.0
 40
12.49364294329563
 40
53.69967005347008
 40
0.0
 40
-0.0857087375213286
 40
0.0
 40
0.0
 40
15.44731879557042
 40
54.70219763133271
 40
0.0
 40
-0.9999999999999998
 40
0.0
 40
0.0
 40
15.44731879557042
 40
50.69208731988227
 40
0.0
 40
-0.0857087375213286
 40
0.0
 40
0.0
 40
12.49364294329563
 40
51.6946148977449
 40
0.0
 40
0.0857087375213286
 40
0.0
 40
0.0
 40
9.539967091020793
 40
52.69714247560746
 40
0.0
 40
0.9999999999999998
 40
0.0
 40
0.0
 40
9.539967091020793
 40
48.68703216415706
 40
0.0
 40
0.0857087375213272
 40
0.0
 40
0.0
 40
12.49364294329563
 40
49.68955974201965
 40
0.0
 40
-0.0857087375213279
 40
0.0
 40
0.0
 40
15.44731879557042
 40
50.69208731988227
 40
0.0
 40
-0.9999999999999998
 40
0.0
 40
0.0
 40
15.44731879557042
 40
46.68197700843184
 40
0.0
 40
-0.0857087375213285
 40
0.0
 40
0.0
 40
12.49364294329563
 40
47.68450458629444
 40
0.0
 40
0.0857087375213285
 40
0.0
 40
0.0
 40
9.539967091020793
 40
48.68703216415706
 40
0.0
 40
0.9999999999999998
 40
0.0
 40
0.0
 40
9.539967091020793
 40
44.67692185270663
 40
0.0
 40
0.0857087375213278
 40
0.0
 40
0.0
 40
12.49364294329563
 40
45.67944943056924
 40
0.0
 40
-0.0857087375213278
 40
0.0
 40
0.0
 40
15.44731879557042
 40
46.68197700843184
 40
0.0
 40
-0.9999999999999998
 40
0.0
 40
0.0
 40
15.44731879557042
 40
42.67186669698141
 40
0.0
 40
-0.0857087375213272
 40
0.0
 40
0.0
 40
12.49364294329563
 40
43.67439427484403
 40
0.0
 40
0.0857087375213272
 40
0.0
 40
0.0
 40
9.539967091020793
 40
44.67692185270663
 40
0.0
 40
0.9999999999999998
 40
0.0
 40
0.0
 40
9.539967091020793
 40
40.66681154125619
 40
0.0
 40
0.0857087375213278
 40
0.0
 40
0.0
 40
12.49364294329563
 40
41.66933911911882
 40
0.0
 40
-0.0857087375213278
 40
0.0
 40
0.0
 40
15.44731879557042
 40
42.67186669698141
 40
0.0
 40
-0.9999999999999998
 40
0.0
 40
0.0
 40
15.44731879557042
 40
38.66175638553099
 40
0.0
 40
-0.0857087375213292
 40
0.0
 40
0.0
 40
12.49364294329563
 40
39.6642839633936
 40
0.0
 40
0.0857087375213278
 40
0.0
 40
0.0
 40
9.539967091020793
 40
40.66681154125619
 40
0.0
 40
0.9999999999999998
 40
0.0
 40
0.0
 40
9.539967091020793
 40
36.65670122980576
 40
0.0
 40
0.0857087375213279
 40
0.0
 40
0.0
 40
12.49364294329563
 40
37.65922880766837
 40
0.0
 40
-0.0857087375213279
 40
0.0
 40
0.0
 40
15.44731879557042
 40
38.66175638553099
 40
0.0
 40
-0.9999999999999998
 40
0.0
 40
0.0
 40
15.44731879557042
 40
34.65164607408058
 40
0.0
 40
-0.0857087375213279
 40
0.0
 40
0.0
 40
12.49364294329563
 40
35.65417365194317
 40
0.0
 40
0.0857087375213279
 40
0.0
 40
0.0
 40
9.539967091020793
 40
36.65670122980576
 40
0.0
 40
0.9999999999999998
 40
0.0
 40
0.0
 40
9.539967091020793
 40
32.64659091835533
 40
0.0
 40
0.0857087375213279
 40
0.0
 40
0.0
 40
12.49364294329563
 40
33.64911849621794
 40
0.0
 40
-0.0857087375213279
 40
0.0
 40
0.0
 40
15.44731879557042
 40
34.65164607408058
 40
0.0
 40
-0.9999999999999998
 40
0.0
 40
0.0
 40
15.44731879557042
 40
30.64153576263013
 40
0.0
 40
-0.0857087375213279
 40
0.0
 40
0.0
 40
12.49364294329563
 40
31.64406334049274
 40
0.0
 40
0.0857087375213285
 40
0.0
 40
0.0
 40
9.539967091020793
 40
32.64659091835533
 40
0.0
 40
0.9999999999999998
 40
0.0
 40
0.0
 40
9.539967091020793
 40
28.63648060690493
 40
0.0
 40
0.0857087375213297
 40
0.0
 40
0.0
 40
12.49364294329563
 40
29.63900818476752
 40
0.0
 40
-0.085708737521329
 40
0.0
 40
0.0
 40
15.44731879557042
 40
30.64153576263013
 40
0.0
 40
-0.6317814036677741
 40
0.0
 40
0.0
 40
17.00254548017317
 40
27.37097037897333
 40
0.0
 40
-0.6317814036677741
 40
0.0
 40
0.0
 40
0.0
 40
0.0
  0
XRECORD
  5
13C
102
{ACAD_REACTORS
330
13A
102
}
330
13A
100
AcDbXrecord
280
     1
280
     1
290
     0
290
     0
290
     0
  0
XRECORD
  5
1F0
102
{ACAD_REACTORS
330
1EF
102
}
330
1EF
100
AcDbXrecord
280
     1
 40
830039.0
  1
\pxql;maxit Strohpanel Kalk-Stroh-Putzträgerplatte - Trennwand/Innenwand\P{\H0.71429x;Variante Armierungsspachtel}                                {\H1.0833x; }
  0
XRECORD
  5
160
102
{ACAD_REACTORS
330
15F
102
}
330
15F
100
AcDbXrecord
280
     1
 70
     2
 40
29.5171875
 40
66.60000000000002
 40
0.0
 40
12.0
 40
66.60000000000002
 40
0.0
 40
47.034375
 40
66.60000000000002
 40
0.0
 40
0.0
  0
XRECORD
  5
161
102
{ACAD_REACTORS
330
15F
102
}
330
15F
100
AcDbXrecord
280
     1
280
     1
290
     0
290
     0
290
     0
  0
XRECORD
  5
165
102
{ACAD_REACTORS
330
164
102
}
330
164
100
AcDbXrecord
280
     1
 70
     2
 40
29.5171875
 40
66.60000000000002
 40
0.0
 40
12.0
 40
66.60000000000002
 40
0.0
 40
47.034375
 40
66.60000000000002
 40
0.0
 40
0.0
  0
XRECORD
  5
166
102
{ACAD_REACTORS
330
164
102
}
330
164
100
AcDbXrecord
280
     1
280
     1
290
     0
290
     0
290
     0
  0
XRECORD
  5
169
102
{ACAD_REACTORS
330
168
102
}
330
168
100
AcDbXrecord
280
     1
 70
     2
 40
29.5171875
 40
66.60000000000002
 40
0.0
 40
12.0
 40
66.60000000000002
 40
0.0
 40
47.034375
 40
66.60000000000002
 40
0.0
 40
0.0
  0
XRECORD
  5
16A
102
{ACAD_REACTORS
330
168
102
}
330
168
100
AcDbXrecord
280
     1
280
     1
290
     0
290
     0
290
     0
  0
XRECORD
  5
171
102
{ACAD_REACTORS
330
170
102
}
330
170
100
AcDbXrecord
280
     1
 70
     2
 40
29.5171875
 40
66.60000000000002
 40
0.0
 40
12.0
 40
66.60000000000002
 40
0.0
 40
47.034375
 40
66.60000000000002
 40
0.0
 40
0.0
  0
XRECORD
  5
172
102
{ACAD_REACTORS
330
170
102
}
330
170
100
AcDbXrecord
280
     1
280
     1
290
     0
290
     0
290
     0
  0
XRECORD
  5
1EC
102
{ACAD_REACTORS
330
1EB
102
}
330
1EB
100
AcDbXrecord
280
     1
 40
3065405.0
  1
\pxq*; 5   Befestigungsmittel (Schrauben, Klammern)\P{\T1.05; }6   Klebe- und Armierungsspachtelung aus\P      maxit multi 340 und maxit Armierungsgewebe\P      Jute in einer Auftragsdicke von 3 - 6 mm \P 7   maxit ip 339 (Lehmputz fein) 5 mm, Oberfl
  1
äche gefilzt \P {\C7; \P }
  0
ACDBASSOCNETWORK
  5
1DA
102
{ACAD_REACTORS
330
1D9
102
}
330
1D9
100
AcDbAssocAction
 90
        2
 90
        0
330
0
360
0
 90
        0
 90
        0
 90
        0
 90
        0
 90
        0
 90
        0
 90
        0
100
AcDbAssocNetwork
 90
        0
 90
        1
 90
        1
330
1D8
 90
        0
  0
DBCOLOR
  5
13
102
{ACAD_REACTORS
330
14
102
}
330
14
100
AcDbColor
 62
   254
420
 12248534
430
PANTONE f + h Cotton$PANTONE 12-5507 TCX
  0
DBCOLOR
  5
12D
102
{ACAD_REACTORS
330
14
102
}
330
14
100
AcDbColor
 62
   251
420
  5857635
430
RAL CLASSIC$RAL 7012
  0
DBCOLOR
  5
37
102
{ACAD_REACTORS
330
14
102
}
330
14
100
AcDbColor
 62
   254
420
 13619407
430
RAL CLASSIC$RAL 7047
  0
LAYOUT
  5
185
102
{ACAD_XDICTIONARY
360
186
102
}
102
{ACAD_REACTORS
330
17B
102
}
330
17B
100
AcDbPlotSettings
  1

  2
DWF6 ePlot.pc3
  4
ISO_A0_(841.00_x_1189.00_MM)
  6

 40
5.793749809265136
 41
17.79375076293945
 42
5.79376220703125
 43
17.793701171875
 44
841.0
 45
1189.0
 46
0.0
 47
0.0
 48
0.0
 49
0.0
140
0.0
141
0.0
142
1.0
143
1.0
 70
   688
 72
     1
 73
     1
 74
     5
  7
D A CH (monochrome) Scale 1-100.ctb
 75
    16
147
1.0
 76
     0
 77
     2
 78
   300
148
0.0
149
0.0
100
AcDbLayout
  1
Layout
 70
     0
 71
     1
 10
-17.793701171875
 20
-5.793749809265136
 11
1171.206298828125
 21
835.2062501907349
 12
0.0
 22
0.0
 32
0.0
 14
1.000000000000000E+20
 24
1.000000000000000E+20
 34
1.000000000000000E+20
 15
-1.000000000000000E+20
 25
-1.000000000000000E+20
 35
-1.000000000000000E+20
146
0.0
 13
0.0
 23
0.0
 33
0.0
 16
1.0
 26
0.0
 36
0.0
 17
0.0
 27
1.0
 37
0.0
 76
     0
330
17E
331
180
1001
ACAD_PSEXT
1000
DWF6 ePlot.pc3
1000
DWF6 ePlot
1000
File
1000

1070
     0
  0
LAYOUT
  5
17A
102
{ACAD_XDICTIONARY
360
17C
102
}
102
{ACAD_REACTORS
330
17B
102
}
330
17B
100
AcDbPlotSettings
  1

  2
DWF6 ePlot.pc3
  4
ISO_A4_(210.00_x_297.00_MM)
  6

 40
5.793749809265136
 41
17.79375076293945
 42
5.793746948242187
 43
17.79376220703125
 44
210.0
 45
297.0
 46
0.0
 47
0.0
 48
0.0
 49
0.0
140
0.0
141
0.0
142
1.0
143
0.3079005835910169
 70
 11952
 72
     1
 73
     1
 74
     0
  7

 75
     0
147
3.247801573927173
 76
     0
 77
     2
 78
   300
148
-76.02726192281787
149
-49.48456368608775
100
AcDbLayout
  1
Model
 70
     1
 71
     0
 10
0.0
 20
0.0
 11
12.0
 21
9.0
 12
0.0
 22
0.0
 32
0.0
 14
0.0
 24
0.0
 34
0.0
 15
0.0
 25
0.0
 35
0.0
146
0.0
 13
0.0
 23
0.0
 33
0.0
 16
1.0
 26
0.0
 36
0.0
 17
0.0
 27
1.0
 37
0.0
 76
     0
330
2
331
194
1001
ACAD_PSEXT
1000
DWF6 ePlot.pc3
1000
DWF6 ePlot
1000
File
1000

1070
     0
  0
MATERIAL
  5
1AD
102
{ACAD_REACTORS
330
C
102
}
330
C
100
AcDbMaterial
  1
ByBlock
 73
     1
 78
     1
172
     1
176
     1
270
     1
274
     1
 94
       63
  0
MATERIAL
  5
1AC
102
{ACAD_REACTORS
330
C
102
}
330
C
100
AcDbMaterial
  1
ByLayer
 73
     1
 78
     1
172
     1
176
     1
270
     1
274
     1
 94
       63
  0
MATERIAL
  5
B
102
{ACAD_XDICTIONARY
360
D
102
}
102
{ACAD_REACTORS
330
C
102
}
330
C
100
AcDbMaterial
  1
Global
 73
     1
 78
     1
172
     1
176
     1
270
     1
274
     1
 94
       63
  0
MLINESTYLE
  5
1B2
102
{ACAD_REACTORS
330
1AA
102
}
330
1AA
100
AcDbMlineStyle
  2
STANDARD
 70
     0
  3

 62
   256
 51
90.0
 52
90.0
 71
     2
 49
0.5
 62
   256
  6
BYLAYER
 49
-0.5
 62
   256
  6
BYLAYER
  0
ACDBPLACEHOLDER
  5
102
102
{ACAD_REACTORS
330
9
102
}
330
9
  0
ACDBPLACEHOLDER
  5
8
102
{ACAD_REACTORS
330
9
102
}
330
9
  0
SCALE
  5
1BA
102
{ACAD_REACTORS
330
1AE
102
}
330
1AE
100
AcDbScale
 70
     0
300
1:1
140
1.0
141
0.001
290
     0
  0
SCALE
  5
1BB
102
{ACAD_REACTORS
330
1AE
102
}
330
1AE
100
AcDbScale
 70
     0
300
1:2
140
1.0
141
0.002
290
     0
  0
SCALE
  5
1BC
102
{ACAD_REACTORS
330
1AE
102
}
330
1AE
100
AcDbScale
 70
     0
300
1:2.5
140
1.0
141
0.0025
290
     0
  0
SCALE
  5
1BD
102
{ACAD_REACTORS
330
1AE
102
}
330
1AE
100
AcDbScale
 70
     0
300
1:5
140
1.0
141
0.005
290
     0
  0
SCALE
  5
1BE
102
{ACAD_REACTORS
330
1AE
102
}
330
1AE
100
AcDbScale
 70
     0
300
1:7.5
140
1.0
141
0.0075
290
     0
  0
SCALE
  5
1BF
102
{ACAD_REACTORS
330
1AE
102
}
330
1AE
100
AcDbScale
 70
     0
300
1:10
140
1.0
141
0.01
290
     0
  0
SCALE
  5
1C0
102
{ACAD_REACTORS
330
1AE
102
}
330
1AE
100
AcDbScale
 70
     0
300
1:20
140
1.0
141
0.02
290
     0
  0
SCALE
  5
1C1
102
{ACAD_REACTORS
330
1AE
102
}
330
1AE
100
AcDbScale
 70
     0
300
1:25
140
1.0
141
0.025
290
     0
  0
SCALE
  5
1C2
102
{ACAD_REACTORS
330
1AE
102
}
330
1AE
100
AcDbScale
 70
     0
300
1:50
140
1.0
141
0.05
290
     0
  0
SCALE
  5
1C3
102
{ACAD_REACTORS
330
1AE
102
}
330
1AE
100
AcDbScale
 70
     0
300
1:75
140
1.0
141
0.075
290
     0
  0
SCALE
  5
1C4
102
{ACAD_REACTORS
330
1AE
102
}
330
1AE
100
AcDbScale
 70
     0
300
1:100
140
1.0
141
0.1
290
     0
  0
SCALE
  5
1C5
102
{ACAD_REACTORS
330
1AE
102
}
330
1AE
100
AcDbScale
 70
     0
300
1:150
140
1.0
141
0.15
290
     0
  0
SCALE
  5
1C6
102
{ACAD_REACTORS
330
1AE
102
}
330
1AE
100
AcDbScale
 70
     0
300
1:200
140
1.0
141
0.2
290
     0
  0
SCALE
  5
1C7
102
{ACAD_REACTORS
330
1AE
102
}
330
1AE
100
AcDbScale
 70
     0
300
1:250
140
1.0
141
0.25
290
     0
  0
SCALE
  5
1C8
102
{ACAD_REACTORS
330
1AE
102
}
330
1AE
100
AcDbScale
 70
     0
300
1:500
140
1.0
141
0.5
290
     0
  0
SCALE
  5
1C9
102
{ACAD_REACTORS
330
1AE
102
}
330
1AE
100
AcDbScale
 70
     0
300
1:750
140
1.0
141
0.75
290
     0
  0
SCALE
  5
1CA
102
{ACAD_REACTORS
330
1AE
102
}
330
1AE
100
AcDbScale
 70
     0
300
1:1000
140
1.0
141
1.0
290
     1
  0
SCALE
  5
1CB
102
{ACAD_REACTORS
330
1AE
102
}
330
1AE
100
AcDbScale
 70
     0
300
1:1250
140
1.0
141
1.25
290
     0
  0
SCALE
  5
1CC
102
{ACAD_REACTORS
330
1AE
102
}
330
1AE
100
AcDbScale
 70
     0
300
1:2000
140
1.0
141
2.0
290
     0
  0
SCALE
  5
1CD
102
{ACAD_REACTORS
330
1AE
102
}
330
1AE
100
AcDbScale
 70
     0
300
1:2500
140
1.0
141
2.5
290
     0
  0
SCALE
  5
1CE
102
{ACAD_REACTORS
330
1AE
102
}
330
1AE
100
AcDbScale
 70
     0
300
1:5000
140
1.0
141
5.0
290
     0
  0
TABLESTYLE
  5
1B3
102
{ACAD_XDICTIONARY
360
1B4
102
}
102
{ACAD_REACTORS
330
1AF
102
}
330
1AF
100
AcDbTableStyle
280
     0
  3
Standard
 70
     0
 71
     3
 40
1.0
 41
1.0
280
     0
281
     0
  7
Romans
140
2.0
170
     4
 62
     0
 63
     7
283
     0
 90
      512
 91
        0
  1

274
    -2
284
     0
 64
     0
275
    -2
285
     0
 65
     0
276
    -2
286
     0
 66
     0
277
    -2
287
     0
 67
     0
278
    -2
288
     0
 68
     0
279
    -2
289
     0
 69
     0
  7
Arial 3.5 mm
140
5.0
170
     4
 62
     0
 63
   151
283
     1
 90
      512
 91
        0
  1

274
    -2
284
     1
 64
     0
275
    -2
285
     0
 65
     0
276
    -2
286
     1
 66
     0
277
    -2
287
     1
 67
     0
278
    -2
288
     0
 68
     0
279
    -2
289
     1
 69
     0
  7
Arial 3.5 mm
140
2.5
170
     4
 62
     0
 63
     7
283
     0
 90
      512
 91
        0
  1

274
    -2
284
     0
 64
     0
275
    -2
285
     0
 65
     0
276
    -2
286
     0
 66
     0
277
    -2
287
     0
 67
     0
278
    -2
288
     0
 68
     0
279
    -2
289
     0
 69
     0
  0
TABLESTYLE
  5
1B8
102
{ACAD_XDICTIONARY
360
1B9
102
}
102
{ACAD_REACTORS
330
1AF
102
}
330
1AF
100
AcDbTableStyle
280
     0
  3
Standard
 70
     0
 71
     0
 40
1.0
 41
1.0
280
     0
281
     0
  7
Romans
140
2.0
170
     2
 62
     0
 63
     7
283
     0
 90
      512
 91
        0
  1

274
    -2
284
     1
 64
     0
275
    -2
285
     1
 65
     0
276
    -2
286
     1
 66
     0
277
    -2
287
     1
 67
     0
278
    -2
288
     1
 68
     0
279
    -2
289
     1
 69
     0
  7
Arial 3.5 mm
140
5.0
170
     5
 62
     0
 63
     7
283
     0
 90
      512
 91
        0
  1

274
    -2
284
     1
 64
     0
275
    -2
285
     1
 65
     0
276
    -2
286
     1
 66
     0
277
    -2
287
     1
 67
     0
278
    -2
288
     1
 68
     0
279
    -2
289
     1
 69
     0
  7
Romans
140
2.0
170
     5
 62
     0
 63
     7
283
     0
 90
      512
 91
        0
  1

274
    -2
284
     1
 64
     0
275
    -2
285
     1
 65
     0
276
    -2
286
     1
 66
     0
277
    -2
287
     1
 67
     0
278
    -2
288
     1
 68
     0
279
    -2
289
     1
 69
     0
  0
VISUALSTYLE
  5
182
102
{ACAD_REACTORS
330
183
102
}
330
183
100
AcDbVisualStyle
  2
2dWireframe
 70
     4
177
     3
291
     0
 70
    58
 90
        0
176
     1
 90
        2
176
     1
 90
        1
176
     1
 90
        0
176
     1
 40
0.6
176
     1
 40
30.0
176
     1
 62
     7
420
 16777215
176
     1
 90
        1
176
     1
 90
        4
176
     1
 62
     7
176
     1
 62
   257
176
     1
 90
        1
176
     1
 90
        1
176
     1
 40
1.0
176
     1
 90
        0
176
     1
 62
   257
176
     1
 40
1.0
176
     1
 90
        1
176
     1
 90
        6
176
     1
 90
        2
176
     1
 62
     7
176
     1
 90
        5
176
     1
 90
        0
176
     1
 90
        0
176
     1
290
     0
176
     1
 90
        1
176
     1
 40
0.0
176
     1
 90
        0
176
     1
290
     1
176
     1
290
     1
176
     1
290
     0
176
     1
290
     0
176
     1
290
     0
176
     1
290
     0
176
     1
290
     0
176
     1
290
     0
176
     1
290
     0
176
     1
 90
       50
176
     1
 40
0.0
176
     1
 40
1.0
176
     1
 90
        0
176
     1
 62
    18
420
        0
176
     1
 90
       50
176
     1
 90
        3
176
     1
 62
     5
420
      255
176
     1
290
     0
176
     1
 90
       50
176
     1
 90
       50
176
     1
 90
       50
176
     1
290
     0
176
     1
 90
       50
176
     1
 62
   256
176
     0
 40
1.0
176
     0
 90
        2
176
     1
  1
strokes_ogs.tif
176
     1
290
     0
176
     1
 40
1.0
176
     1
 40
1.0
176
     1
  0
VISUALSTYLE
  5
1B7
102
{ACAD_REACTORS
330
183
102
}
330
183
100
AcDbVisualStyle
  2
3dWireframe
 70
     5
177
     3
291
     0
 70
    58
 90
        0
176
     1
 90
        2
176
     1
 90
        1
176
     1
 90
        0
176
     1
 40
0.6
176
     1
 40
30.0
176
     1
 62
     7
420
 16777215
176
     1
 90
        1
176
     1
 90
        4
176
     1
 62
     7
176
     1
 62
   257
176
     1
 90
        1
176
     1
 90
        1
176
     1
 40
1.0
176
     1
 90
        0
176
     1
 62
   257
176
     1
 40
1.0
176
     1
 90
        1
176
     1
 90
        6
176
     1
 90
        2
176
     1
 62
     7
176
     1
 90
        5
176
     1
 90
        0
176
     1
 90
        0
176
     1
290
     0
176
     1
 90
        1
176
     1
 40
0.0
176
     1
 90
        0
176
     1
290
     0
176
     1
290
     1
176
     1
290
     1
176
     1
290
     0
176
     1
290
     0
176
     1
290
     0
176
     1
290
     0
176
     1
290
     0
176
     1
290
     0
176
     1
 90
       50
176
     1
 40
0.0
176
     1
 40
1.0
176
     1
 90
        0
176
     1
 62
    18
420
        0
176
     1
 90
       50
176
     1
 90
        3
176
     1
 62
     5
420
      255
176
     1
290
     0
176
     1
 90
       50
176
     1
 90
       50
176
     1
 90
       50
176
     1
290
     0
176
     1
 90
       50
176
     1
 62
   256
176
     0
 40
1.0
176
     0
 90
        2
176
     1
  1
strokes_ogs.tif
176
     1
290
     0
176
     1
 40
1.0
176
     1
 40
1.0
176
     1
  0
VISUALSTYLE
  5
1B6
102
{ACAD_REACTORS
330
183
102
}
330
183
100
AcDbVisualStyle
  2
Realistic
 70
     8
177
     3
291
     0
 70
    58
 90
        2
176
     1
 90
        2
176
     1
 90
        1
176
     1
 90
        0
176
     1
 40
0.6
176
     1
 40
30.0
176
     1
 62
     7
420
 16777215
176
     1
 90
        1
176
     1
 90
        0
176
     1
 62
     7
176
     1
 62
   257
176
     1
 90
        1
176
     1
 90
        1
176
     1
 40
1.0
176
     1
 90
        8
176
     1
 62
     7
176
     1
 40
1.0
176
     1
 90
        1
176
     1
 90
        6
176
     1
 90
        2
176
     1
 62
     7
176
     1
 90
        5
176
     1
 90
        0
176
     1
 90
        0
176
     1
290
     0
176
     1
 90
       13
176
     1
 40
0.0
176
     1
 90
        0
176
     1
290
     0
176
     1
290
     1
176
     1
290
     1
176
     1
290
     0
176
     1
290
     0
176
     1
290
     0
176
     1
290
     0
176
     1
290
     0
176
     1
290
     0
176
     1
 90
       50
176
     1
 40
0.0
176
     1
 40
1.0
176
     1
 90
        0
176
     1
 62
    18
420
        0
176
     1
 90
       50
176
     1
 90
        3
176
     1
 62
     5
420
      255
176
     1
290
     0
176
     1
 90
       50
176
     1
 90
       50
176
     1
 90
       50
176
     1
290
     0
176
     1
 90
       50
176
     1
 62
   256
176
     0
 40
1.0
176
     0
 90
        2
176
     1
  1
strokes_ogs.tif
176
     1
290
     0
176
     1
 40
1.0
176
     1
 40
1.0
176
     1
  0
DICTIONARYVAR
  5
1E3
102
{ACAD_REACTORS
330
1DD
102
}
330
1DD
100
DictionaryVariables
280
     0
  1
1:100
  0
DICTIONARYVAR
  5
1DF
102
{ACAD_REACTORS
330
1DD
102
}
330
1DD
100
DictionaryVariables
280
     0
  1
STANDARD
  0
DICTIONARYVAR
  5
1DE
102
{ACAD_REACTORS
330
1DD
102
}
330
1DD
100
DictionaryVariables
280
     0
  1
Bauelement Legende
  0
DICTIONARYVAR
  5
1E0
102
{ACAD_REACTORS
330
1DD
102
}
330
1DD
100
DictionaryVariables
280
     0
  1

  0
DICTIONARYVAR
  5
1E1
102
{ACAD_REACTORS
330
1DD
102
}
330
1DD
100
DictionaryVariables
280
     0
  1

  0
DICTIONARYVAR
  5
1E4
102
{ACAD_REACTORS
330
1DD
102
}
330
1DD
100
DictionaryVariables
280
     0
  1
15
  0
DICTIONARYVAR
  5
1E2
102
{ACAD_REACTORS
330
1DD
102
}
330
1DD
100
DictionaryVariables
280
     0
  1
0
  0
ACDBASSOCNETWORK
  5
1D8
102
{ACAD_REACTORS
330
4
102
}
330
4
100
AcDbAssocAction
 90
        2
 90
        0
330
1DA
360
0
 90
        1
 90
        0
 90
        0
 90
        0
 90
        0
 90
        0
 90
        0
100
AcDbAssocNetwork
 90
        0
 90
        1
 90
        1
360
1D3
 90
        0
  0
DICTIONARY
  5
E3
102
{ACAD_REACTORS
330
E2
102
}
330
E2
100
AcDbDictionary
281
     1
  0
DICTIONARY
  5
186
330
185
100
AcDbDictionary
280
     1
281
     1
  0
DICTIONARY
  5
17C
330
17A
100
AcDbDictionary
280
     1
281
     1
  0
DICTIONARY
  5
D
330
B
100
AcDbDictionary
280
     1
281
     1
  3
FBXASSET
360
E
  0
DICTIONARY
  5
1B4
330
1B3
100
AcDbDictionary
280
     1
281
     1
  3
ACAD_ROUNDTRIP_2008_TABLESTYLE_CELLSTYLEMAP
360
1F3
  0
DICTIONARY
  5
1B9
330
1B8
100
AcDbDictionary
280
     1
281
     1
  3
ACAD_ROUNDTRIP_2008_TABLESTYLE_CELLSTYLEMAP
360
1F4
  0
ACDBASSOC2DCONSTRAINTGROUP
  5
1D3
330
1D8
100
AcDbAssocAction
 90
        2
 90
        0
330
1D8
360
0
 90
        1
 90
       52
 90
        0
 90
        0
 90
        0
 90
        0
 90
        0
 90
        2
 70
     0
 10
-1152.053230365049
 20
2298.824832675524
 30
0.0
 10
1.0
 20
0.0
 30
0.0
 10
0.0
 20
1.0
 30
0.0
360
0
 90
        3
360
1D4
360
1D5
360
1D6
 90
      263
 90
        0
 90
        0
290
     0
 90
       13
  1
AcConstrainedPoint
 90
      251
  1
AcConstrainedBoundedLine
 90
      252
  1
AcConstrainedImplicitPoint
 90
      253
  1
AcPointCurveConstraint
 90
      254
  1
AcConstrainedImplicitPoint
 90
      255
  1
AcPointCurveConstraint
 90
      256
  1
AcPointCoincidenceConstraint
 90
      257
  1
AcConstrainedBoundedLine
 90
      258
  1
AcConstrainedImplicitPoint
 90
      259
  1
AcPointCurveConstraint
 90
      260
  1
AcConstrainedImplicitPoint
 90
      261
  1
AcPointCurveConstraint
 90
      262
  1
AcParallelConstraint
 90
      263
 90
      251
 90
        1
 90
      257
 70
     1
330
1D5
 90
        0
 10
1336.878700252349
 20
-2375.067208373578
 30
0.0
 90
      252
 90
        3
 90
      254
 90
      256
 90
      263
 70
     1
330
1D6
 90
        0
 10
1336.878700252349
 20
-2375.067208373578
 30
0.0
 10
1.0
 20
0.0
 30
0.0
290
     0
 10
1336.878700252349
 20
-2375.067208373578
 30
0.0
 11
1338.865739815786
 21
-2375.067208373578
 31
0.0
 90
      253
 90
        2
 90
      254
 90
      257
 70
     1
330
0
 90
        0
280
     0
 90
       -1
 90
      252
 90
      254
 90
        2
 90
      253
 90
      252
 70
     0
 90
        0
290
     1
290
     0
 90
      255
 90
        1
 90
      256
 70
     1
330
0
 90
        0
280
     1
 90
       -1
 90
      252
 90
      256
 90
        2
 90
      255
 90
      252
 70
     0
 90
        0
290
     1
290
     0
 90
      257
 90
        2
 90
      253
 90
      251
 70
     0
 90
        0
290
     1
290
     0
 90
      258
 90
        3
 90
      260
 90
      262
 90
      263
 70
     1
330
1D4
 90
        0
 10
1244.585870815779
 20
-2363.829071814054
 30
0.0
 10
1.0
 20
0.0
 30
0.0
290
     0
 10
1244.585870815779
 20
-2363.829071814054
 30
0.0
 11
1339.553966844079
 21
-2363.829071814054
 31
0.0
 90
      259
 90
        1
 90
      260
 70
     1
330
0
 90
        0
280
     0
 90
       -1
 90
      258
 90
      260
 90
        2
 90
      259
 90
      258
 70
     0
 90
        0
290
     1
290
     1
 90
      261
 90
        1
 90
      262
 70
     1
330
0
 90
        0
280
     1
 90
       -1
 90
      258
 90
      262
 90
        2
 90
      261
 90
      258
 70
     0
 90
        0
290
     1
290
     1
 90
      263
 90
        2
 90
      252
 90
      258
 70
     0
 90
        0
290
     0
290
     0
  0
XRECORD
  5
E
102
{ACAD_REACTORS
330
D
102
}
330
D
100
AcDbXrecord
280
     1
 70
     0
 90
2070111275
 71
     1
  1
C45BBEC2-8AE4-4777-9373-551F2BB9BA42
310
504B03040A00000800004042543C3DEE336E79000000790000001B0000006175746F6465736B2D64657369676E2D7061636B6167652E786D6C3C3F786D6C2076657273696F6E3D22312E302220656E636F64696E673D227574662D3822203F3E3C666F726D6174733E3C666F726D61743E687474703A2F2F736368656D612E
310
6175746F6465736B2E636F6D2F64657369676E2D7061636B6167652F323030393C2F666F726D61743E3C2F666F726D6174733E504B03041400060808004042543C65017641AD00000026010000130000005B436F6E74656E745F54797065735D2E786D6C6D8E4D0E82301085AFD2CC1E8A2E8C31800BF5065CA0D6011AE9B4
310
690783B7B70D1B4358CE9BF7F3D5D7C54EE283211A470D1CCA0A0492762F43430333F7C519C4B5ADBBAFC7289297620323B3BF4819F58856C5D279A4F4E95DB08AD31906E9957EAB01E5B1AA4E523B62242E3877405BDFB157F3C4E2B12479DD7D1A02715B7D5DB235A0BC9F8C569CB0A4D38C5C440EA82CC8DD024FC3A6C0
310
D80C90F5FD4422DE24FE27F337E5648689ED0F504B03041400060808004042543CB6C5C2CCE70000007C01000008000000636F72652E786D6C8D50416EC32010FC0AE28EBD60C74111268A1BF905FD000292A0C46019A8FAFCE2C491DA5B4F3B9A9DD91D8D387E4F0FF46597E882EF31AD0023EB7530CE5F7B9CD385708C8E
310
522C21A45F328CBC9A6C8F571A4B715D429E374A079FAC4F85F5C1D88D5431DA84917E14D0E3A86F765295CAA928E2BD9A95BEABABADE81B1573CECEA0D71367CA3D777176C192EEC7F104DD4886A16949CB769C9C5A3893EEE33CEC78C73ADEEC45BD9AA5486E7AFFD78B55C91A2C195020C008834FE007CA0F40490100A2
310
5EE57F4C7936FF3465E753C3B6B82F5B2C594B90E7428A7AEDA28C675165AEBDC91F504B03041400060808004042543C55019EA25F0000007C00000007000000636E782E786D6C4DCB3B0E80201045D1AD90E915ED2CF8AC45050C11660C8261F98AB1B07AC9C97D42D718D865D3E909258CFD00CCE24AC6E326A164D74DC0
310
B4128928FF326038472BA13128B1252AC747C6BAB984FC68F0B87FE8960A5C09FE86CFB69FBA01504B03041400060808004042543CE8F224056E010000D40300000C0000006662782F636F72652E786D6CC553ED8E8230107C95A6FF4B0BA2924BA9D1333EC1BD4085CA35424B4A4B7CFC5B3E8CE7C533DEAFE3076C6676BB
310
3303F0CDA5A951AF5CA7ADC9711C318C94296CA94D95E3E04F24C36823B8B3D67F6BC3C8C846E57880B1E095B3A19DA1C21AAF8C07D4D852CDA0EC3AE5312A6A2872DC159FAA91910C1E3ABA73D4CAE22C2B15C511D0D02778E71D0840D392E18EC5E978E174C2050F419733AB4BD8A64F5A392CE2F5E1B065AB03D9ED1629
310
49936546B629DB93D5FB7EB7CC56C92A5BAC391D8605F7BAB9AA2B9C925E9558242C66842524611F2C7B8BB33716132818E37468BF1B0A6DF9E250D0C62F9259EE34D681561032123FDC42441E75B2073D54703A84088F31E1FBA0211008D9CB637DF57106A85785B72E05A6B4E146F5B20E0AB6B2888D17FABDE0749A84AD
310
E3E1E0FAE18EE4E51DCF4F84572D4D0526A487F218FCA0934F1AE6D05AE548EF2FC858D7C8FA351B4F1CFE89BA897F28A9B0B575FFA588CE2F88CE9F071DFE47F105504B03041400060808004042543C33325EC77D0000009D0000000B0000006662782F636E782E786D6C4DCCD10A83201886E15B91FFDC65B9D2033526AE
310
FB886521330DA76397BF1A1DECE883878F57F49FD5A3B74D2F178384FA4200D9F088930B8B849267CC01F54AA418F3DF0D5018572BE160506249B16C274D761E8BCFBB7A179E270E849A8ED41AF3C6507CED34C79A198E87B665377AA786E9062A25AA5F69DF23ACBE504B03041400060808004042543C6D9CBE5829010000
310
12020000310000006662782F46303344363031422D383244332D343642382D423744382D4635353741334533443742322F636F72652E786D6C8D51CB6E833010FC15E4537A30D81008898CA3229A2FE80F38D849AD041BF951E5F3BB2E446A6FB97857BB33B3B35E767C4CF7EC5B39AFADE910CD09CA9419ADD4E6DAA1182E
310
B845D99133676DF80343991193EA502A23CEAECEC6792D8DD6046502548D956A2D0AEF5540D97887A4437EFC5293C8450C80F0B77C16E34D5C554E7368038E331F1C18C89621E945FC44AAA121B4C76D395478DBF42DEE77438B4F75BD7BAF3EAA61D797AC58889CC5A8E54AD712ECE88B56EE559144E62CE8E9697F744A04
310
25112F09259894B8249FA43DD0F640288684105624F83F529CE58BA4A84DA8CAD5EE42F38853562C0DCEA48DE7FBD38C7ACCD6852CCDDB7835BE214E7242AB7A0FEB2F40581F149BEDAAE88375F0BD9BDB19B0B45E649B2D6745BA1084DFF3414CD7E43F504B03041400060808004042543C0E1CB5884B0100003303000030
310
0000006662782F46303344363031422D383244332D343642382D423744382D4635353741334533443742322F636E782E786D6CD593CD6EC32010845F0571B78DDD288A224CA41EFA043DF48A6193D060B0F8A99AB7EF929034971C7AEC05A1D98F99D5C8E6BBEFD9922F08D17837D2BE659480535E1B7718694EFB6643C94E
310
F0E07D7AC0287172869116990A7E083E2F55D2B097D92654AD71A72A06883E070511E5F29258AFA44503704D4611E609B4064DEE20DEF610701514A7334947206FAF1FC44F9FA052E45D7111BC2B198297B3263D4094282B631C69544798652B73F21AE2A9D532C9B66F6F594F76FA7522E5C12D3207434AF848CB4945DDA8
310
C51E798743C1630AD85E85D279012AE4B258A364C292BB0B786504CFC6A5F5AAB2068B0F48F7EB97D50ACD2E33C19399A1122A804CA0A91858CF1A3634037B679B6DBFD9B2BEC10B63BC2BB8E093F7B63E421B087E21CABB042E51D1F3AE8C9FD55739A24DC0AE7D38FFA1482CA0A65EDBB97BFCE77EBACBF78D7505FC0BC4
310
0F504B03041400060808004042543CFABBCAC8BE05000007110000340000006662782F46303344363031422D383244332D343642382D423744382D4635353741334533443742322F6F626A656374732E786D6CB5585B6F9B4814FE2B887DC61863D74985A97C492AAB4A1BD56AB50F91AC010687CD70D1CC903AFBEBF71B18
310
30F8D27A6F7930C370E65CBF7399781FF629335E2917499ECD4C6730340D9A85799464BB9959CAD8BA318D0FBEC7F35C76C84C2323299D996ADBF4BD1DCFCB426F453426259347BBF78BDF0D11D28C9A46C88810335384CF34250352CA3CA2E26510114906BB783F700635619FED8E93E2F988694138CD2434C57E062E46AD
310
94D37F1D9AB6EFD9EABBEFA95F4DE55EA6B22B7BFAF2934C48928527C28ED8B8CE7875379ADC5A93F1D8B5C6EF468EB5B85FAC2C67EA0E97EF96CBDBF9DD2D040BC9C1496BC2696CFA1FE11B9E849E5D7F6A35D68A9F5329CCB38C8695FDB0B0D259738C6841B308714CA880B48ED5C3FEABA37CD3F9ECAA772DB2BB7D9D55
310
DD131D468DEECDB3AB691EFC0113C435A8E0822A54D5FED186D6F81B1EBC16E439D3DF1261A444529E1066B024E084BF993E481589EFF5D828747285706581E93B077E5D5D911ABFC6EE392DE39231054DD3AF90BD05FEA9149566C99F949F97069D10AB32C9E48D3648BE15D4F46F3DBBDAF43DF57047FA63ED4823666487
310
90C3CCFAEB91A14B957BEB95E97FBA0FF61B958FE785173C2F28970A3E805613B8E6A9BCA4C53A57454E1D80313D9F1F9CF2159EFF8CF43DA882B8F1643FDE8FB514C94926E29CA788CD6058FD19C36661B5ABD305EAD911F5294DBBF38F883DBB55B65F302EC50FE052A1B9F9F7F1EBFBAC8BD44EF87CEF1509967357BB72
310
131286D2F39064088802A5C1726CA196C7C1DEF4D7A894A8EC384598DF3AE464E1D9AFF88EDF9A37AA5525BEF3CC10D0A37A7B45E5872FABB4806E17C07252272BC1DAB84B3E9FFC2739335F6D3E6D4A1E93903EE8C2B2A271922512BDF300DEAE42BD40F42C7AA16F3F721EC1D0D3206CBA4148B528016F2B9F2BC7EF9A66
310
A15E0E927B02429CDBE5AAE679BF90002354C7EEF07F484448192319CDCB466EDB98147ADBB2A32707E465ED627774846B4E5F13355BF4287A8AA2FB873C299413DB36D856EEC105EBBEAD3F03A6A0677940D8812838D4FF306739DF066FDBBA349A40238EF4E1FEBD8F77ED025B71410A54E06E6A90F6F9364AE2B81428C4
310
67DCFA7DBDEC86AEAD2CA78B26A31A8975928E51AE918C846B3C3732312170824E9F67DB047D1D797A567857F6B10051F1BD6494A02CDE268C95E9364E189AE63625C5058FFD3F2606655A6C499A9799BC20B7675DE3D1C67F8D793D64891F4486CFA6BFA99ED6025D24A2D1012C3D62D515CF78B50790E578B258DC2D47D6
310
CDFC6E6C8DA7D3A975EB4E5D6B3271EE478BC5ED623E1EB51A55239EEF354DB35B16104F3469AFE4890EF4B73592505712D37F20523C7DAC73FC69573FBFAD0798D43D1B679061EDC1755A309AD24C12953F0F6AC1BE120C3A3D1EF5FE3A253B7A05972F1F37473A60E78A738F2AD7E98FA3B37A77A9B2F12C13F95CA64146
310
1266FA242ADE7FA8A6A3998D7664DF0FDDD5BBA1B3B06E462B354D2F6EACC5747563DD4F26D3B97BE7AEA68B91CDA9C84B1E5261BBF670ABDDB52DB29D76561380F659B7A6E655BDE92860A016394B2254CEC8D8D13CA512F5F38AB6C5532A80B3EEF522D2D7A02B4EBFD683AD2401A38D26CF04B33D13480580B40C657FDF
310
F80DB3A81A076726DC3478C18F2E20A60180CC4C946599C02583007D5E4D7015730007E3645BBB015092ED18AE08F5A1F6BD3DA57C83B28956AEE5B724D78C7DDAAE5EBF405929307EF4BA41A59B1610FE2DC31B750C22B10C4AD9DA72D8688DA9C4201F6BA3F42507B3D08B16BD4756FEDC2C6750D1F43C72D585EFA720A8
310
B95A92F05D75C151FA6995E6AB471B338DB1FE6214ACDC2196D773B2545EB0529505A008A8D03C0B2201D5E5FBA7479EE3529DA614A526A5B8DFAAEEB802F6139A3DCDF5B5DCD83CE3921D3DA19C50759312A3A1E33C5529AAEF54DB80083A209178C1469372CA8623B401922773800E82ADA27044BE5E19BAD58DC1B482ED
310
C97C5DFF47C140FAA84BB04A966E912D7E7A87B12B52C081E3F6E1FF05504B03041400060800004042543C000000000000000000000000350000006662782F46303344363031422D383244332D343642382D423744382D4635353741334533443742322F76657274696365732E62696E504B03041400060808004042543CF2
310
70F1330600000004000000360000006662782F46303344363031422D383244332D343642382D423744382D4635353741334533443742322F747269616E676C65732E62696E636660600000504B03041400060800004042543C000000000000000000000000370000006662782F46303344363031422D383244332D34364238
310
2D423744382D4635353741334533443742322F617474726962757465732E62696E504B03041400060808004042543C08DA0BD19000000041010000360000006662782F46303344363031422D383244332D343642382D423744382D4635353741334533443742322F6469726563746F72792E786D6C858F410AC3201045AF22
310
B36F53E9A60B35CBEEBAE80D244E44489C6234F4F835464A48035D0DF398FF9F8AF63D0E6CC63039F212F8F9020C7D47C6792B21C5FE7403D62A1188E2E60C98D7234A5830286103A55745067B9D86B8A3CF9C7F90C11DE607FB144396D7B6A82D282E9A152AD114D5EF2CB866EEE831B8EEA07A7BB5A8D7D61A2BAAEB7FD5
310
F70921FF497D00504B03041400060808004042543CFC04818DFB000000A00100003B0000006662782F46303344363031422D383244332D343642382D423744382D4635353741334533443742322F7265736F75726365732F636F72652E786D6C8D504B6EC32010BD0A628F0DB6E3A00813C5B572825E00C1244589C1E253F5
310
F8C5B12BB5BB6E6646EFA3F734E2FC353FD1278468BD1B30AB2846E0B437D6DD079CD38D708CCE5204EFD32F19464ECD30E015C652DC83CFCB0E69EF12B85450E70DECA08A111246FA598E0147FD01B3AA544E45111FD5A2F443DDA16255A18B4E8A98422980B69075621920FA1C3444516FAC14395BB36BAC2999F6662160
310
C98ED7EB85F61319C7B6235D73E0E4D2D189F46FD378E07DD3F3F628EAD52C45B2F34F471D40253058369451421BD2D077CA4F8C9F2823E5A054D4ABFC8F292FE69FA66C5D6A9BBDEE668B25AB14791152D4EBBFCA7A3DB3ECF5B7F21B504B03041400060808004042543C2DEF20765E0000007A0000003A0000006662782F
310
46303344363031422D383244332D343642382D423744382D4635353741334533443742322F7265736F75726365732F636E782E786D6C4DCB390E80201085E1AB90E9158D8D05CB59882C21C28C41301EDF2516562FF9F23FA1CF9CD8E1CA1E09258CFD00CCE142366290D0AAEF66605A8942547F193034D9497818940885DA
310
F69175DEB4546F4D11D70F27E04AF037BBF779A90B504B03041400060808004042543C9BF2716BF6000000980100003D0000006662782F46303344363031422D383244332D343642382D423744382D4635353741334533443742322F7265736F75726365732F332F636F72652E786D6C8D504B6EC32010BD0A628F0DD87150
310
8489E2A639412F8080382831587CAA1EBF90B852BBEB6666F43E7A4FC38F5FCB037C9A10AD7723240D86C038E5B575F30873BA2206C151F0E07DFA2583C0C9C58CB0C250F039F8BC6E90F22E19970AEABC361B2863340902F528C708A3BA99453632A7A288F76695EA2E67D390A6D04527784CA11400AF903AA1E878FB4205
310
CFD9EA8DB3BA64D9AB35010AB2BF5C4E787847D3D4F5A8A73B864E3D3EA3E1ED3CEDD84007D6ED795BCD8227BBFC7453C1C864341414138C3045147F607620EC80092A07C6BCADF23FA6BCEA7F9AB275A9A35BDD972D96AC52E44908DED63F95F57C62D9F5A7E21B504B03041400060808004042543CDA6089D527010000C2
310
0100003C0000006662782F46303344363031422D383244332D343642382D423744382D4635353741334533443742322F7265736F75726365732F332F636E782E786D6C5551CB6EC32010FC15C41D83ED26B1224C54CBCD17F41E51BC715130583CAAF4EF0BA95BB517763533BB3B1AF8E9BE18F4013E68677B5C570C23B0CA
310
4DDACE3D4EF14A3A8C4E827BE7E21F1946562ED0E30263C167EFD2BA41135C653231A346DBDB06B2CB0C16BC5697D5CE18292343E87150EFB0C84AA6E82608B76A92515675E521B8E415E415E50A324E49938F8125296021A7F578CAF3107B7A7DBBD3336BC73DAB07D235634B9EF6434786C3D891F36E77786E5FDAF13034
310
F46767A02DFD6786D37243F0E4352A5D8FCB8BC5AFA8CA8E39CDB4E021FA1CCB268B9F6B76A81739037D48BE59C1A35E60D3280F32C28445C36A4658431AF6CABA63DD1D594D72C318A7452EF89B73661BD23682772B522E3736662B9C165A705A12CDE51177AE3E7F8AF802504B03040A00000800004042543C88E5759790
310
41000090410000420000006662782F46303344363031422D383244332D343642382D423744382D4635353741334533443742322F7265736F75726365732F332F305F67656E657269632E706E6789504E470D0A1A0A0000000D4948445200000080000000800806000000C33E61CB0000415749444154789CD490310A00200C
310
0373F4E7EABFE3A05D0405373D28293794125A2DD61596473C0FA08858ACE5F9BB73595C0E20607BDFF2173D9CE8000000FFFFD4924B0AC0400C429F9AFB1F39338B32FDD0AEBA6A0381208806AD372401437CEAF9245485CD1DC0C00E962E3657B8E7FB69BBFBC659B86D9220B4CB1D65FAD74C000000FFFFCC93310EC030
310
08035D1BFEFF63E84012554D86284BCB80301E7D3E00E06A3B0B02E0131024C1DD8736B3A9ED154AB5FB1DFAF35EFD48CE5EF33B1C1181CC842450FC552176E7060000FFFFCC95310E80300C03CFD4FCFFC1555486A445A21B03C24BA478F4257EF501522A14BE03C1F60ADD36A75D3C0AC6ACA69A8CDCE7BF42D2E34AA79F
310
DAFD7B2F29C38E002022E8BD2F008ED6B00D05C35E3BFFD5050000FFFFCC96390EC030080467252CFFFFBD5E8714B19DA34D8A4C872890D8E578618089CE36EAFBFFE02A7A29E536F58B4C52625E25C1535FC83CCD32435DD339E2B1E104DB76886D9BD61AB6B14DEF7D89BF18F523825A2B928888C3183F66070000FFFFCC
310
96B10AC03008444FAB19F2FFBFDA2107C10ED592215B3BD4F14038BCA7F8B13B5966FC0E063343738765E8DB67ACB6BDC2CFC7AD80C01250A08CC57A341E152209C52DCE19208931064882E40D41859F00C4D2AF221051A89ED043E1EE68EEE8BDEFC1FD415D000000FFFFCC96C10A02310C445F1B2BACFDFF5FDD1893B61E
310
765DADDE04C15B42602EF366C80FF1FC0E86524E94723ED23ED93E2596CDF8A3F25F6ED3323EE677181EB06C553F88689819AACAD58C9B19EE8E7B102D6811F4DEE9E3A9945222E58CEC0FA288602248CEACAA5C96855AEBDF35C21D0000FFFFCC974B0A80300C445F3F2BEDFD2F5AD1D01AEB425B15C5A5B8497621216F06
310
E6A36DCE30C01310F5E15535BCC4AF47928E1C77E9F7FA32B514541511619C26A4019048697382591555A52CA55ED11CC01883B516BF03E09CC77B47CE191121C681BEEF0821FCC61156000000FFFFC457C10A8030087DB3CDCB2EFBFFEF1C6B95A30EAE261D3A4490200A0A82F8F4F9D3388EFDAB880F0881C1CC36C30CC1
310
6E807CF39FECC5EC4D69C3F63573486B03F97329A8B5AAF62D202206F5F6053C6B6A6C830391EBAFA9D733E63D6412ACEB829C33628C482981885EF4EF3B39000000FFFFC498BD0E80200C84BFC190E0C4FB3F2852FEEA2020123707593A909096EB71E57E6900551DC39D316630FE093AD08C9659C96FEF66025B5F62DBD7
310
17C0757D2DB8BE749DA921486B84803F3C22422D7591A09ED82441FD58945A21E74C8CB1D5DA656DA394424C892082738EDDDA2FD7F9699D000000FFFFC458310AC020108BA04E75B1FFFF658B978AD2C1A227A5D0CDE96E396E4808499610C02963647E010F05F80CE044822FD0F57CDD0EE9279BE9230911414A0914B6DC
310
6FF45F743298B1F672AC99C3D11F945A71E50CF72404EF3DAC7538CB018A600B017B8C4BD4E0060000FFFFBC58BB0E8030083C1734E962FFFF273B4AD1E260C1565D8C895D48089094D75DF8B501EC784374AEFB9628A28A1EAB9FD7FFB509FA62DFED5CDFF898DEA65F243BE35F98C19951B416BF62BEE37D0301F6053F8E
310
0EC0A007C5B4F8AA8AB215C8BA6214C1384D2022A8022925F0C288714608E14B8A5FBF1D0000FFFFAC98B10EC2300C445F225361B2D3FFFF482A70E2A6434800896CF562C91ECE8375A73B69F6EA8F569E0D2482AAB22C1742F87CFADC1DD49F7B66B9FDE81336E8FB192B40A3FF520A963339E766FF9E2FDC1D2A23F90BB1
310
671E5DFCBFAF7D638F49FB820044629385BAE3E67871CC0CD51BAA5744846D7B6066ACEB9D94D234983ABB0E000000FFFFB458390E80300C7353D4A1CADAFF7FAF5FA89A0806E805A22021866C1EA2C472EC2CB559DC19EFCE2C7DC8F4AFB3F039D64DA4FF49EA6784E871E5D9532A4B6ECB3F148088AABCB7418CF77FBD32
310
6240196300DA0995924254212AF0DEC33907918C182398192104586B7F27C1060000FFFFB4993B1280200C44570BB1A0C6FBDF100BA9B2C102017FA88D076018864742DE7E68013BE69B93D9FD9C9F4DD8703678C5CAD535EDB28FF6E5BD54834740B67D340340822210499A9764114B7D9772018D7AF308EAD9733A784D09
310
D3A7E10002000A1196000A61AD85190D5415DECFD018313957B4F25F20AC000000FFFFB4593112C02008E3EC828B83FF7FA55DA4A7E8608BA2ED756907CE955CC024FA9107D039FF72F98838BCE275E7F4789BA8EDBF978085C4A275FD8DF4F964E65667BE4F3975F24DCBF685F5EFE0D0A18029D30028C328A8D60DCA9C21
310
529401B368C16C06F610E02002EF3D38E77E93840A0000FFFFAC99310AC0200C45DF5007EF7F490FD0C141D30E31515BA1945610044194FF135FF47708BC89EF132819192A2D239FD904ABF14336786B008334EBB514A47DFA58CA57F187BDD375BD46BD55009311FCAC8D25C6120238449F9DD941AA106324848D9C332925
310
003781ADF4E54A1EDB090000FFFFAC99DD0A803008853FA331E8FD9F76C3D955732E8A8ABCD00B11040FC7BF5F01D08B9FF3E9E46951454F60CC97C3DF6C3F30C10800035AB3BEF679CF770AF7B4EF8B7EE587784812114C8D5A0BB21CDFCB8D35259A6A00011E3DCCA273CB792E3B000000FFFFA26A0280CD84B1B0228C85
310
647CD43A1FD3AD68753E321F4F23106F1790848480C00C28753DB4370FCDF7A8453ADC6C7844A35503B812054C9C8181818181918191119118FEFF812C62F9CDC4CCF0E3C70F064E46460616165686BF7FFF303CC748040880DE2525254100000000FFFF949AD10AC0200845AF4DA4FEFF2BFB832D64EB61E1DAA8986FBE28
310
C2BD4744E4F9CB53C7E48F62218476E060BC373C1A80FFA5BEB53D22DF6D80F52498E65A0FD763027443DFF45FD0ED8D719A78847BD72854ECC184F60329113666A82A72CE1011C418975A780C51010000FFFFC25302202F96C0AE021678B0C11DF848D6FFFFF0E955BC4911A5D187CAC756F463B403A85802C0BC88DA6641
310
8E7CA4D63EA1DC4DAC388C0DB59891919181E13703C34FC61F0CCCCCCC0C7F98FE30FCF8F9938193919181958585E1F7EF3F0C4F9E3C6590969662E02461F8183541A0B61F00000000FFFFA499D10E80200845AF39163FC1FF7F185F21D5D68359B261B3E5138FBA7BC103FCFE028808CCEC28D597FD07FA422B0CA0AF27DE
310
5116BFF6FF930670E7DAE8391320C8FA48C419A1EFB8DDCF4362E38EB427142BC839E358EA889A790511C13683AA42443E99A07BA4E387130000FFFF9C9A4B0AC0200C446761EF7FCF7A827E32D385DAF8815A14B2314188090C7964193E0BC21642C6993E26D54D5034D573ACF556EF870D7713E30FDF574C6F65EDCBB780
310
4B33B705C5ECAD3A17F67E8CF174B949A328617786525702529260341CE7098A191819F618574BD79C070000FFFF9C9A4B0AC0200C44C7B1981B78FFF379001786942E54A462BF6E26590812CD53067F13C0D323888024CCAC39651DFD1FB08FF57DBFA2C1BD8E22BF9F33D4B51F3D2441F617BF9B3ABB1FE673BC24C0030D
310
660AF4BC2E06502A36AD469A27B19B414B4110814840CE192925C4185FEDD7D538000000FFFFA45AC90DC03008332474FF41B34129F491435173A86AFD361FB02C0B7912027BEB5D0F4A8C606698597BF478DFB35AC207CA54001D6F77F0BF87AFA8650E626EA1676FF31F05F0B0FE4110EE80021AB20B6854040E10615C66
310
D0532147EE17A49440444504E35EDFE0060000FFFF9C9B490AC0200C45BF26C5A5F73FA3276831A40B67895DD4951814CC8B3FE26028C0F7E64F55C144B89AF48BC093874E1F05B6535E6B90C566435901777BEDFB07F89C9E30B5BBBEF2CB732E26C6837BC8B6096C07DAE6B5D6CFD03152CA160422D2E167C920A11A9CAE
310
A86DF6602E37AB292584101063FCF2F8B1BC000000FFFFAC9A4B0E80200C44874A2CF73F25DEA1A52E8A0405A326B2817445FA795DCC7C5E01448495B929682E58785A9BD9B26579FEA553A127A8EFDF7FDC6F287034C1426EE64408B0A223F2AFC5BC69907B72CCA7BE8F9919A255F550041A2394B4AA9101A20222771D6B
310
29C879033323A53490EDE9EC000000FFFFBC9A410E80201003BB35F20FF9FFB3F00D18B2091E90450D62BCC8853BD30E977E0E40DDBBA594DADF6FAF08B455C4731E7BA0EF0AFB03FCF9AEA34EB2B48B426856036610DF02D03542A7F9C310140B0030ED538A0126123913AA0A11819B1DE21611C20AEF978347BE94707476
310
000000FFFF626124A6DA86024646C8A0042CE090A72B21E620AA017C7512A1461FB21A7A2400B8DF9056F432313331FCFF859E9351EB7D8A4A010289E0D7EF5F0C9CFF3819FEFFFF0FC9F17F2089F32F333303D37FE822963F7F20DD70767686EFDFBF33BC7CF98A415252828194A16200000000FFFFAC9ABD0E80200C840F
310
69256190F77F489D19F871A104047411269276A0F705480F9276E47A48B150EF48F1CD0580E683759F3923E0E3C87FAEFF16FE0D02D91F33C31803EF7DF107D6828F6F037462CE81E8639E79A9C0A6CACC2923C6801037E8028222AA2EA62602EF8CF33AE1DC016B6D57CBA111D494FA060000FFFFAC9ADD0A80200C854FCE
310
DA93F8FE4FE5431879EA42B34CE907BA1BC260EE636783EDF53D00C022F74BBE8B2FF2DFB26F92DB7B7BB2BFCE04BFCD0122D069AADBC08DF4F780F6FB3E4EF27FF5D9E364029ED7C4AA0A0C0073D54712122356636044120712A3B5984380F71ECEB916C6F1CBAAE037000000FFFF9C9AB112C02008435339FBFFBF6A27F5
310
AA74804CD6EAD5998917950BD99A01AC491673E6D68CCEDFECF6CFBE803F021860F92BB2250AD6AF6A400188C7B923E219516AD902FE067480FD3503402D77A01DDDF307B5548345834AE1E6113B75A0ABE26E0D12044104295DC8392FF7053C0F000000FFFFB49BC10A80300886BF5A0BEA15EAFD9FAEAEC56A731D961541
310
6397BC08A2277F7F51B41800C6A451449F22F57B361793B3FD45FFAACB7C006EDF6B1C34066B1BFAAE675D5676BF1782E0CD0E14808054F53122921840CE0DA1B6206B5B6A3D4E49D027461009408584C0261B3E789C734CF3CC380C9FB979CA010000FFFFB45B410EC0200803DDFFDF6B88851D70844CB69DE6C998E841A4
310
25D21E4963B0E570B862CD428C709923E3016CC95F677EBEFCB779DEFF5FE0EB3535378836666ABD477753441E8AB76FF82FB9FF4601BA605F2F0A58E7022035F3CE60420140C948BC4260F6AFE23142C78039EB0014E3040000FFFF9C9BC10A84301043DF42A98C82FEFF97AED68E7A98B66BC5AD60612EED2510921C9A71
310
25E3EB1F44C000A86A5146AE4FAB2ACEB97BFB3F596A754EF7FF14DF22AEF5F626FFCB246C39DA62AE83A5ED1EEF3DDF7966D35893FD60FF46FC25126E22E0AA7AC39814BEEF2C4BB096303F07086B8090FA8C51E103433F304E239DEF1011EB1388345D1AE0000000FFFFBC5B310E80200CBCB092880E8CFCFF6DBC417A71
310
806231DA51920B0B53EF5A52B8BA57004988C8F4F5E9E3CF246404CF30F4D56DFC5AFE7577893710E30954E8074D085D08ED7CC97057040F212C2218B059CFF58C2E91763B92D109D7517592485B422905C7B1F76A30C6DB6AADC83923C6E88AE0020000FFFF9C5C4B16C0100C9CDA70045D70FF83398428795DF83CB4F5DA
310
5A059BE44D6662331E1BA0677F95FFF9DB946E8331ED697D647F1FFF033E67B3023E3FB4526BF29812B858BF13338E10E03D0100945420A241F6AF0C7F798E1BF0EB7D37FEAA1A1385520367D772C84E65B109E85DC31A032965B3AFD77A638C70CEC15ABB5482130000FFFF8C9C4D0A802010851F7908570976FF7BD501C4
310
4C1A6B618E3F88E94A0617CA7BDF208C4ED700C949445475BB28EF0325617F6386FE91F8BD58256E9C4C11CF8F3F4BE25306483F84BCC7E91CE8A62F032CB9BCDB23BE8A8F8CD08AFFE47571C749013EF7E55CA49D02F72A104240A915524A500830C6B0A981879B53586BB11F0736AD73C1AE91EC050000FFFF945BBB0EC3
310
3008BCE02195423EA1F9FFCF4B17ECC8C1EE40C8B3A9DAC18B174BDC1D1CC85C3683DC14BAF2F7C1F4E011859F09F0AFE2BF81FD09DCCB1D4EC0D4FDA74FEBAF759EA15A508A42B5AC8B21D3940C785550D3A0EB18140829463357AA3698B953FC0D11B673ACF5AEFA43EA3C19B19C33524C28D508D0738F617882992122AB
310
21F72ECD93348580B67DE0358E10916538B4CD00EAF2EE1B0000FFFFA49CB112C2200C867F5A1CEA90B34365AABCFF33D93760A6C16BF41C2C0888E720036C0C7CC9FDDC7F499A9D41D1E9AB35EB3D16A55D275FAF7FE0D7607F9D2DF8F7ACDAB7D4F8470A844D04B710525B58A73A9CA709C61810114404CC0C22C27559C0
310
1C76DBFB13F2D7408819BF0F9528E0E7EF9FED49320178EFA10F1AE369C47C99711C06AC2B436403A0A0F5CB9657AA43DFC7BB55FABB39E760AD2D584477F0090000FFFF8C5CBB12C3200C135CB3F101558EFFFFADE40B98D225CDD91DCC23A4A457260616232C73B24FC312503C718CFE5B6FBC8940BF35802B90DFC0B610
310
EFCEFD4DFFD78FD580E67BCA971C9FD5F8FD6DB5737A4C88316226AB945A6D618E032104F0492CEBD24D3FDD67FBF90148157846E03B18F51A6C5AEFDC7B6F828E03661224A1AAD8B6576E16691E232FE614B6171138B429ED94124876FE0B657D000000FFFFA45C410E84200C9C8D7AD15492A58986FF7F8E8B5ECDDA5DF7
310
504090ECC5E5099DE9740AB43F3D401DE852CAFE23C09DEC07827055F5FE04E053993AC9325F44B0BF7407407CCD34C6C0DA27981944A4B3FB09F83744F674F7414460CBF0DE976A73ADF18988B9EC5F9D7E8CF581239200E79EA2A66931F4BA4D6434239C7310116C9B4E2C3F024E45C508BF9AF2D375DAC62ECB8A799E2A
310
9CBE000000FFFF749CB11283200C863F4DBB58ED641DEDFBBF5DE59005950E1A140F06EE200753FEFCF70D218900AA0ABC5F129ABC8A41ABABE400D7CA4EE3A5249FF773FB701E8AB60F64C14EFFFAED23DD8E8A3F206A5D57DE5DC7387E19860F2235DE2F38E762B2EF0B40A4A6EF7B8C31586B63FBDBDDFE95EEB72D6FFB
310
21B256D2BB0D9502DC93AE6D695E0DF3EC908744000CFA38E9633CF2C7EE1A0AF1E8A43211A6E99715C01F0000FFFF8C5C410AC420108BA5E8CADAEE45F0E6FF9FE7452C156A0FEA682DC21E4590C168662662060660F43DBABEF48DD43A63801923CC007FCFFD71FB7BF081BCB9A56DAB603F818F38CF88700412B07EFB0E
310
6B2DB4D6A4F285103BE0AF92365AFAC80A5BEE0684E030C6D09A35BE57A157812737B1A1026F4C4FC38531702EB06D0A524A78EFE19C83525FB2A7A982507324EBED6CDBA1B852C29212D6352B9ABE58DE48F979C471030000FFFF8C9C310F83201085DF9D1A3BA9832676D1FFFFBFEC62272BD646817610E8699BA6036160
310
39F2F11E5C7287C802287C8B768420D5668CBCFFF6407FC1FF07B884FD11835B94F66AADE8EA15B35E359675C1639EB138F0E7BA4659963BF04AA9AF6A0F6D62DEC6DD8B792B1889501439AA7B85AEBB047C47CB7F8B45664B07EA6EBF84278819697A429E65889318C370C334291011F4AA61AC0DF0FD60DE8A58FC0120DF
310
5B0042C4CE8998112709CC38A2EFAF68DB66C7EC050000FFFF8C5C3D1383200C7D89B2D881C1DE51FFFFAFAB7775E38E2A4807084687B67B8690072F9FE49405C87A14638CA2D7DC72E0A2F08E94BE67019ABA7F82AC64FFA17C01FEFAA53BA688B86D65F74EF5F17B4A784C13EEE308E71C88E804BC8E13A40E901570D297
310
177D0900778C0E3D9C730821607ECED515E897BFABBAC171D6AB8DA8D23931E3360CB0D68298B0BC16BCD7B551BBF8FC227B4C2F13736382C6022D0E60E4DAB5EDEB8C83F7BE5D1481E3030000FFFF745CBB12C420085C9B34B1D5CBF8FF7F48521CEA7905C4574CEB30A3B2B8B28A4E39C0A8FDB57B9990B6F5A7827345F1
310
0AF807F893CD9AFAC5B2A7FE5F2983944B5A3F9FB348B9FBE4EECBF2A1D3717CE0BD8773AE02CFCC48290F14DFAFF806784B2CFBAD07909C5DA87A4308014404A213C6E0B1F25103E0E5759511F966F71DD65A7064101122C7C1B739ABAFCD02FC1A044D44DE77374519406E37375CD7096656352023FB030000FFFF845C41
310
12C2200CDC302D07DAAA4FA8FF7F91FA0B6670606AC10304288CF508A7B09B6C42603254B6FCECF0D56351F951A897F74CEFE9FEFFBC9F404F0BAE3D8E11CF933C12F1CEC1598BDD7BDCAEB1375E477C21FED35D0FB3D4B7A485D0D9C4401109080A504AE1BEAE783C5F781B9395A0384FC1B641054402E33860592E98A709
310
C61868ADE3C91B6FD9B6D80E169CF313E95CF01505A003F979B279FAE7B87B0F6B2DA494B933F8050000FFFF7C5CC10DC3200C3C68455E49783000ECBF4F3A46A350A941A1A58F603028EA0B2130823B6C2C63B8D304BF2935DE3F9D56DCF93B57239AC1FF925F1B2F08AF320568021EC826B4F3EC33E964EA4308D8DF3B8E
310
78609E663867618C2949ABE563C77C71C2E3FDFD19DD6A3C95171B20250632A0B586B316CB63418C1F665E8BEE573044969712C330601A4728A5B0F90DDEBF08DEA63B554447BE60E49323C8A3B8000A3FF276268B00C0735D9B67E63F000000FFFF7C5C310EC3200CBC04589852A9594995FFBF28F943BA51429BA4033646
310
20850D18B07446B60F739A4FFDC608EFBD8480C2829C09B3B3D02DBA53AD68C12F002FF66A47282B8EACDDC37DF2BF047CDC23FC2749AB1863F09A2638E760ADCDFA7EC7C1C2CE44F9121B780F7C5D7AD2BA182DE0501276A1C7383E31EF339665C5794A7B7CCDEAE11272E7310C505A61DBDE082134E1B4AB26FC2691416F
310
C0AFBFB74948EFBB2473A3954EE56B31FE000000FFFF745C3B0EC3200C7D7C26A2F4027573FF53A517606824A620950ED8160E0D1262C083C1D8F83D3EFA32A853BFDDEA8257450D2532B85F8E85EFFEB59BC2FEB418EE8D3FC23A13EA199E4A821763C4B6BD404458960E934A290AE78400528F6FCD24785A59916B7BD5DB
310
0CA97D15877BE7001F404F42AD15FBFEE6999B037F080129253CD6157040CE19E7595572A482C7A2CEC757C3FF1BDF6E035DDE2206EF1D8ECF31E401C00F0000FFFF8C9CB10EC3200C445F02D9C2C20F344BF3FFDF46CA5029810E60E19028EAC88284CFB68EF3C956821F42E03812C60E54638902ACF900C51790522AA610
310
95B97F91C09B764F3ECBB7A2C069E0BF42F0EA0C7C5DDF78EFD9F722E0C83F5F0B41A93A6AE8417F00FEAEDA2FE7FA8E1A6E86110C23CB6B01284990F32936D36499E719E71C3146B6ED5356D1E8CABF605F1442D93BDC00EFC05744B02581BA4508A431D0CD717E000000FFFF945C4B0AC320107D634648415C790069EE7F
310
A4E6168D2D14A70BC789B449A12B3782CA1B9DCF7B23DB043D9E74F495F000114881698C13594368AD82DE13FA4F0CB00759DDB834A7EF9DB1AF46CC3CB52EF1506A36848065B922A504E79C017F54BDB3A7DED63AF3F33A0E7B3D03FDDB3064176C1261E20939671008B775357FEFBD478C119779C676DF5AB027C32DFB00
310
DE52BEA60003330FB2B05FE03BFDD84A8DE7203BA82228A59868F40D0000FFFF749CB112832010441F03A1B1C1DA31FAFF3F674C23642624C58122624107C5CDDEB27B706080CA1445F60C4841C634276B90D626B5297F41E91BD69F93E20ABE0CD9EE731D9F74FE23066FF39B3C867C188669E0398E745D470861BF0A3D81
310
9F74BEA9ED0D9D2F81BE677E1547B526335DCEE5A5737A9E27949224B0D6E29CC318CDF25AF09B6F805E7D40A90E10E127A46B30FDF004A529BC96F26512C41859D7377DDF03F0070000FFFFAC5C311284200CDC20D65E49A3FCFF75145E213A842B90104E6F6CAE64683281EC6E7632B144106EFDB5989015029CF1150325
310
678C0F5EC01DA73691C722D68EA3AFFA3DEE606638E7302F335ED3243C5FE1BE28FC84C4099CB86BC18A7BF71FB8EF0F570AA3B3D289089401630678EF61ADC5FA5E0110420832DDD332A6A05ACF61D43B54C16994F0FB7E7C23EBEC9A3E501F40B5F695B662DC24820F000000FFFF6C5B490EC4200C735B893E62729BFEFF
310
417C63AA42A5D2CC81601671E300521483E32CF06750A6E35EB533255125AD162355952DE33CACD83BAFE25E059F5A886125EFA9E0DF16E7430C785382733B8EE30B11018086EE733EDFB67759A81A299FEB6CC79CF627804F5E7EBFB53FFB025852223D17D52EF2C1EF3CE1BDC775853A5D353482087801BFBD14BA60770E
310
DBB6D2F723F8ABC5FD510714C7B39066223E5AB91F00FE000000FFFF7C9C4B12832010441F909529532E63990378FFD3E835CC2A9AA2B3403E129315AC80A96EE8F95073899609654D27E4A7A5608C81542489801B63113E49C3BFC450C9C0085C8AE7D78DD7BAC7F3DB8610F7BEE7310C745D572472DED58DCFDEFD6FC075
310
384B3DD6A07E817D32392381D25E42B2A92E8F815BDB328E23F334B33C977D2D7B003EFA1165F898755C34D706EB1C2A64B8949D408C4CA22CE5A4D7563E7420110A3F8CBCC739C7070000FFFF7C9D3B12C3200C441728A1A7766AE7FEF771B80433C0A6508CAC38E404307AFA212198750011E0C0A0976F58DCA7474D401C
310
479FD78FBC972A96246EEDFE26E00FF8E65C7F5A7D95D0536B45EB0D31463CB60D3967905C2679675D4285AEC0FFBB7BDEF7B7266E9561A13436DC48CD41A68BFC849152C2FEDC711C2F9452404A4B1DC6622FF0CDEA4E8DEE1BBE53F00074788457E5E7F4947D74C322848037000000FFFF949D410E02210C459FC68C6CD0
310
1BB051EF7FA499530806A42EA450758C71416045483EF0DBDF5276C0C87805BA0F683900A1D6CD780FD016904B0179D6B6538BD5F2BDC8E7959F55C54B37528AE45CD08C971002DEFB1EFB1EA7BE18E0ADD4FA47FF6503FCC07E15743B8752E768B5894FDBEEBA49ADECA789CBF9C4F1E099E7856B8C6FEA9D01DF8C0570CE
310
F50F30D7051FB5135ECBD32BF81A3391962974AF83CE1F000000FFFF8C9CC10EC2200C867F1CB799C9C1655EDDFB3FD5BCB9701747A9870E6C06313E4043D29F86F6CB4F2D33C37B0F8A11C65A00099C0F6FF4019900024057C64192D52A2AC13A1944B198324278E315A4EA2912FA738FF93E631CAF60E602738AF80AE654
310
33FC9FA2B7DFEE5AF11FFA1F621B8D262BA76F926AEB28C15AF96BC8BBAED374C3305CB03C16ACCF55809AB2DEE170114EC6C039D7843B2AA0AA7EC6770DFEB60953C9C616CD273E000000FFFF8C9D310EC2300C455F05586D97CC50F672FF030117A02BA402C2103B75A98AD833F95BFEF6B71DE732508DF9D62CD15380E5
310
0130ED0AD804AA881063CC7BEA4A03CB90FF72A5DD83BB6AF700FB43E6FA104251F88A92E7BA76FF0B38BF405F0BF9ABD07FBD9D73BE39E052569E9C20772FF56ED076A3FAC993BAA939F53DC7AEE37CB9320C375232EDDE3B02C84E689B7606BE5779AA8AF2B185B77F52F0C751AF9DD94C819B1F00F8000000FFFF8C9D3B
310
1283300C449FC74EE014843EB9FF9D481137A40124A5F00F68C2013CE3B1646957B2BCC1950333C5D451134B71598C220DAAB41270058266ACE5070BD74047ADE6AD4928A968F188083E781EC3C0388EA82AF3FCCDD4AE093396DEFCB9277F95D6FD037A17EC7F5A7F8C3C691F39D7EE6FFF1E945AAE7388B089E796E56DCD
310
401D091BBC9EC44F647A4FC418914D487A1A29A2F67D4FD7DD3950C66A9BE4143E1BBF3D62D1CAAC963C48B2AC0BA6860F1E53AB135E3F000000FFFF7C9DBD1683200C85BFA01DDA73EA8275F7FD5FCB8E76B4A76AB043403C5ABBC2C04FC2252137A134A858560A515C232276FA45F246A80A224A51840839F6BE6D503D23
310
B19C99056FF25D9FE85341035575A76D5BBCF72B0369FB23E77F23EF4C0976FDDBB683904F8CBC53F9EFC63D40FF0F1460AB083033471ABA525E72E9B7699A70CE51D79EA679300C6FBA6747DFBF18C70F0B0BD7DB351A8169525911523EC05EF896E36021F2E445A95A312F278E10BD37802F000000FFFFA45D310EC3200C
310
BC380CEE96EE644DFFFF3336E25440070C06B56A87AE4858883387B1CFC2B50442C919594FF1A8543527A89B901AD88BD3AC60FDA15BE48273AB49B2AE7AD78FCD0B7EF7D8BD073323C6F846F9B5554BD9E89F20EFAB03FC847DB231D1FD27E031838F61DCE6435542D68FB0AA5893A8D6E989087C633C8E032925C4F34408
310
01F76D53A66DB598799D1618A3BFCA9EFA2399887416404177A4A5989117000000FFFF945D410AC4200C9CD51E5A5AB62FA8FF7FA025A06DDCC388C46E29F424286820D14C46920C1FB0F013E37943033704D8E380520FA11BA02B483923C688711A99AB9E1244D8734F0B3F8DC21610C2C6277FDF71B45EBC96BBBFF0F7AF
310
466B08BD929FC1DDFD8235B027C577F37FC66264AA7B965391B5A273EF6BD12D72FD7A2A9C67E3C9659EB17E5738E72022EDF69263B8486CDC6E3E98DA66C935C6FC83E16B4AC3113F000000FFFFA45CD10A80200CBC4DFD00FB03FBFF1F0CB47AD09D664144820F22226EC39BE7360F58944F2582440169F3B4011E063820
310
C8523D57D78A2A861078CD8B081D3A7B03A735618991346FCE99DFBDB7E08CBFCA1FC65F5A5F3B61FDACFC17C53F43D1BCD741D8DD4B816A95A7770E5A6A7D60830793B3B2BB8B1190E51BA8714B7CD95A5CA4B6C25774EDA4E70F9C000000FFFF8C5D490E80200C1CC02392F002F9FFBFF013027A183623014F1C48E88476
310
4A535AC806A02A03910341BAFEC67ED1810F0190F202F28B619B52D8B586F727CF244121D65A3877C018F372F905684A715C8AF547D953D7BF3200F1999FBBFC11EB178C1FE2E8F75254053249C31A08FE3FCC57CAA46CACAF8177192BE6D6761663E2A55A69ED4B6C302989244ABD81BC1E003C000000FFFF845D41128020
310
085C663A684FF0E0FFBF58197450508BEAAC33228BC0B0232CA04A37EAD7A5EE01C48C0042C335042718DB2E167B8E5210E38A102BDD1962404A0939671060048EB97CD609DC4EA2F702FAA4E087A2BF62BD87BFDCF6CD207A40FF016F120CE8EB1113D3E719425B6211A0D53D50C87A03AA21507B58BD38D365B366D35CE7
310
1A13D54F21569154819AF168F278010000FFFF7C5DBB0AC0200CBC8A5BDDDDECFFFFA120C60E466B126D16110E0C5C7C9DC178A0039B5E01C42170A1BF71FE7B2928AC008E2C9E7007E49C1163C493126AED8598D7926C5B35EF40BA20FB877CC1BB0E00BB657E183DFE61D6DB3E4C2B82F0649776671F08C38808A0863A71
310
1623FC065F0B597370CE2D0FCD6DFEE1E959C70180170000FFFF845CD10AC020087490CFEBFFBF74B1E0F6A033B5DA9E8A0AD22E8D4E4B3382F4FBB1EC013C19A42A42932BFBDD355F5D846A97C4E89999EA59A72B5E5FB8FC81C1B77BCFA51B6A686E171FFEF88AED79630D4BDF59FD0FF0D1E45D75063A82B9EAA740C59B
310
AA409AE620E18FE21B0109083A41F0B2BBA052D8E2370F000000FFFF845D410AC0200C8B32F1B0FDFFAB3B8C991D566B0A6EDE2B2D2426058BDD00F84EBFC686AC0A408248269963C7DEE513B9276E1B0D2389520AF6E31D71CEF6B171F77C97FC7EA31484192040889B7BEC027C44B78F40FDCBB9122134785ACF5772620D
310
6E0071159BC79B819E122275C22484C0417E49546BF59EE0010000FFFF945A490E80200C9C122F5CE501EAFF9FC51B68E20278B02A5242622FD0362184E9F4307400006B2DEE593FD45A00C9E3A402FC6D0507C67EECA20318CCCB84D139A418E1BD476086217A46C7DE1FAAFFE0AB5C11AF31501DB25A358B5B0CEFB0BE3E
310
4C193576E235C1250D64A72374F39FC2286F910B3F8BB278D9090000FFFF845CC10EC0100C7D46626147FBFF5F7473916C87671BD686534BE5251E954ACB01682F53FC021616D8D04701F4BA249F4518A53055CB3A8B2332CC3B53E29D5F2B4288C83963DF3D80A75882E07FF21B89D20953E7E8045C8A3C63EA6E7DB411F1
310
85662665452E8671C87D12B98B8DF259F68A1916C37BFFCA37000000FFFF8C5D410A0021089CA1FA45FF7F652B7B48C36C5BF424358760C41141AB80FEEAAD5B314940B4D2B4625944E65CBD76F6C678D622C5DEFB5A57623DE852E6383309D4D6BE09F77E222032E41FA70E1BB3C99574C5FD6ABC59643D5E5EB47E7A27B9
310
DC20B72C9024DF3D873825C0EC050000FFFF949C410A80201045BF59D4C07485BCFFF144A916922DA6B232A3562E443FE393F98CA8758C119552E8DA16D6DA53B921A12F4BDC3C7FC6384D0821A0A91B504730660033C33B87FD3A949C122A10119C77E8998F5734AFE9BFB4F01FE097A09F863F6894AB8FF7547F077DE52B
310
8DBA3348DE9CF59737CA1F0B48F2B9B6CC2E5169AD2FDFC8AE000000FFFF945CC10A80200C7D927550EFF5FF3F5747838284CA0E9B62D88A3CEE5D84E736C7B69747799C7318C70967C36BC891E7FE766EE8F0AA75D79286EE30F430C66259A993A7A0A035D596C771C25A033F7B6C21D0A74320A32206A8F37FBAA490F745
310
ECF3713D616F811E28255C4AABE8D915AF32F9AF9E8FBFE4DF000A013166D998742E000000FFFF8C9DBB0E80200C456F141C1426FCFF5FC445127904070882560253C3C821B7B4346D290913423CCD1173E2C087507EF3ACB36950D4C2B12B0529258C3971590BEF1C62041867E0392298E6F43ED0874E7DF819A3E1D787DE
310
F3B99DCBD0587FB29FED0F6852618845307F6FB7C5DDA3A0C7E0D7FA3F049FE41FB1AE5B33C9FD060000FFFF8297007C7C7C0CECECEC900DA2D0A1E19FD079FC5F3F7F414FC7606710161161101515854EF522067960C7993330406E1483CC037033BC7DFB96E1DBB7EF90858D68AB8789AD16B05501D86B031C0986948485
310
06E0018A25E3E3CAE594453E666982CCC65ECC13906380965CFFFF33F0F2F2A2F801000000FFFF9C9DC10E84200C449FD9C22A12FCFF7F5CAF8B078D1E0A898BA8593937044A679A36CD20D9D01843D7B6C46F0421A9684D2A97DE807D5B9C730C21A80843D479BE7999D34CFE9A5A9080B534C04B843004C6CF88A43F06B3
310
D7AF727EBDECAAA1B4920E0EE83ED9A7B03FAC13C4DFA1F4DF877ECA0625CD6BDC150CB43FF7AA2D65EFFB9F6B6D000000FFFFC45D310E80200CBC0E84057580FFFF4F1619988450874605C438DA85A4C776B9B469E02A8ECF90D9B1750EABF760E6CB50A9145956A8B5867316442416EA2921E7D48C750B17600788E43F3A
310
98B1CC33C21610638499CCFD82B8277A707E9780510C7A8AEAFE48EBBD5ADE516AF37F935F734C6D9B5963A74C94528F6D2207000000FFFF429C16CEC0C0202424C4F0FFFF7FC42A923F9055C06CAC6C0CFC7C7C0C6C6CECD0593D48E4FFFD87BE218381E1CFFF3FD09D2A6C0C90830B5918848404199E3D7FCEC0C40C390A
310
05A5574052024030F055D7C42716A8345A66410423720E23AEB826560F35229F608900F70764A289938B0B63093F000000FFFF9C5D310E80200C3C8C180914FFFF455C3B8889C1A146053418994A189AF6B88381D26C36790F72843007F9861C72B1336684B50E312E887115F0CF52AC2C95D8904405A0A0750FA53A107910
310
3398F9E8383A9C2F583F2BC0E5228FEC7E366784AFD97FCFD1653EB0FE15C83FE07E586F015B4A7B7323D471A524452AE5D8010000FFFF9C5DC10A80200C7D36A8BCAE63FEFF9FD51F34EA9075D0594689E44914863E9FF29863CB084044706EC434CF3000281627ECAD85F73BD6754BC19BF7EC598AB27653E97513744063
310
0C0666C822101100477010C59595FED39F14C836A8534A822F417807EF45CC65764B37BB6A2C19A93CFC3AF7EE9F57E082E240DBB560E614E8A3ED040000FFFFA45D4D0BC020087D31B0B10EF9FF7F64D7AD067307B7A8F6C9D65110D1A7601AAF035328332B28465F0A59225822C49890E6A45BC04C1973D3848936840400
310
5D07220BCF1E21048C93412FCAB8B5EB5CCFDB8B634AB1D40E37F6CFF4F21D3E27C15BA03E56EE5FF073E59789F66CAF8DCA220237B8EDA3EF3A342B000000FFFFC29A00040405183EBCFFC0C0C2CCC2C0CACAC6F09F01B27BE8F76FC8993BFFFFE1AA541109E2DFBF7F502E23031B1BE49C1A010101862F9F212755313242
310
2E3D842C5640443AAE0E19235AEE856E5C8368C2C8FD487A600E624491404B36E4443E23A65E3897889281889C8F29865F3DA6BF100076A104FA1E4E00000000FFFFA45C410A0021081C0B7C4AFF7F9F1DDC8366A12D2CAC3027E9A2624933961D2FCC8C3186395B0308F12814992630083D7E86CBA29C9AB498C12226E7EE
310
CDF6E910082233E8CA7B9DBB7F1967A8624BBFBD53383923AE8E136EB598CE08E504BFFBAE81473D4BA9607E259F6EFEAFC9A780C246FC3CFF2F7B000000FFFFC27A58B4BC9C2CC3B56BD7E099EB27743CE0EF9FBF0CFF19FEA3050C4AF0A204F9BFFFFFE0ED0106460606061656064E4E4E063E7E48D7F03723242261EB08
310
31CD43CFB6FF2143D4D0154A8CD0F58AC8118DD61942682598BB91F4E3CBC568C532692D7822D4923CDE8F99309199FFFFFD870FF2C18491E308000000FFFFC29A003838381974B4B519AE5EBBC6F09F81013E26F0FF3F6AE43362B110622B8CFA8F54153030307040B63A09F00B307CFBFA8DE1E7AF9FF04522C8CB9730E3
310
1D12E9C8342CE21991FA709869085F4EC6174138221F4E123603591D5673488C7C94648D2FF291A8FF0C90BD85C2C222A811830400000000FFFFC2796790AAAA2AC3E7CF9F191E3F79023DBAE50FD600424B0628009633FFFD829604D0128595959541584498E1F9F3E7901BB2A19B16991899E02E6764C08C746C89001560
310
0B70DC62F8229F702EC627874B2F213309A845F1223E3968F8FFFBC7C0C7CFCFC0CBCB831427A800000000FFFFC27B6B98969616C3EBD76F18DE7E7D8B3350F125008485FF18FEFD82F61C20491D5215F0F1317CFCF89101B6349A8119621A72E4E3351CE104342E72AE421743753B6604A0CBE15647D7C867C466278A0791
310
DCCFC8C0C00039B6460C7A542E3C1418FFA3F40400000000FFFFC29B003838381838383820AB7F98995172206C912103C37F94C50658C17FC8A6F3FFFFA167E43032327032723208F0F3232D2D832C496366C2DE1E803A1F6B2EC42E871C5C98114C7A4EC616218CE84C5431343623AA42A2F561442ECE848160FD830EC323
310
4E0545F239522200000000FFFF9C9D4B0AC0200C445FEC0DAAF6FEC794426D17FE6BA0D22C47FC9038300A8EBAD36317D6EE20FD47494D9517DF1955B94F2AFE265E91333B9286103066C3390B50557ECC2BABC59D583BC71ABB45C77E165FDB68DF0C6E58EABF700934CC21E520D08D39B617CC88E0FD313C057F650C8007
310
0000FFFF229800A4A4A420B9FF1F62A006BEA61FBE6C1A09638348EAFEFE855C6CF8F5DB57861F3F7E40CEC8E7E747CC28229F4C0E85D8230D3B8D2D41604B4CD8731F151304C9F244B03112375A02848AFDFFFF9F8197978F818F0F7BD70F590B000000FFFF22980084848418E464651002F0BE36EEC84660681A61406A7C
310
FC87AC18829DF5F7EBD74F063E5E483705B25D0C3A1E006B31121BF9707F1193309042808848450F74846E7C89894479A2D8B8F988C88724143131511CB91F25A41800000000FFFF2298001818208D418C3304D19B935807F0B08CCE3042C4610B4EBE7EFDC6F0F7EF1F0661116106760E76E82EA3BFF0EE23D1918F1E8948
310
34DCBB387325FE1C4BB0FEC7484C686C528B7A52239F01598C8141187A011641C0C8C000000000FFFF222A01080B0B33E8EBEB614AA0C72F96F8C66E2FC4B9FFFEFD63F8F5FB17C3D76FDF18FEFFFFCFC0C7CB075F4D041B69441E7822AE6867440438C6A00D0303034EB3B0C9218BA1B1714412563DD803812691CFCACACA
310
C0C2CCCCF0EAD52B86E7CF9F33BC79F3067E130C6C2C07B147839101000000FFFFAC5D310AC0200C3C53AB20F80DFFFF24FB013BA52E857648A916541C9A3164C91D8124E4C8700AA82D84801837A43D41F592EA9AAA40AB4006DEABE39C33ACB570CE810F9675F2758ACC492B10A84D3EDABE02E328BEC67182C8898A9FAD
310
EC3FC8FFB2208DBAD64BF92E0659E231B3DC691261350678545CDE7BDC000000FFFF22AA04606080A42C434303062646269C1336B800239C80B91DEA01D836E7FF9044F0EBE74F060E0E76060E0E0E06462646F83E83BF7FFFE29F2422902070CBA14704448CB88824560C3B1B256CA810F90C0CFFA18751C1D6F932A2842F
310
030303FCC6901F3F7F327CFEF285E1C58B170C00000000FFFF223A013030407A049A9A1AA4684173263C161890BB650C0C90C6CBEF3F7F187EFDFE0D5F85043B350376E50B6C568FE4F1001C72488E41514F7E8B9EB8C8C79D10D0D9442406A4C8E7E4E0C458F1831AFEA8F8FFFFFF0C00000000FFFF22290130303030686A
310
6A32888A8A92500AA0E72844C4C3F6BB33229206C33FE8B574AC6CAC0C6C6C904400B9CDF327D2A516E891C080268616D038E4085705A4473429918F9910B0254C3C7C28F8CFC0003F8A0E7D62941006000000FFFF22390170727232989A98401A6B44240246341A1EF148109E2419600B43FE33303142CED9676767871C60
310
F117D26BF8F3FB0F6A6F04236209E458AC7224D4C984AA08AC1148091B071F0EFE33B030B33030B3B0A08CCDE0C60C288D7400000000FFFF2239013030407A0506860650EB892C0990221D290B42130452626080B911B2650D960858595919FEFF832E58FDFD8BE1EFBFBF28E622D34812980902450EC3817822039150F056
310
11A8B66092548E7C6616C89A4D48D14F4C5C405300344100000000FFFF223101FC872F28D3D2D460303234841B8902B045024C1C4B0980D19D8359C500491CACACAC0CEC1CEC0CAC6CAC0CFF19FEC30F9F80CD22A2E863404B100C58DC82357289890C7CF2986CCCF020511FA1C8676661E0E0E080ACA7405FEB4524000000
310
00FFFF223201C08672A1E9076A999A9A1A83B4943403AE94879A0E9073396A09802C8F1C21B0C40A3BEF869D9D1DD22E606262F8F3FB0FC3F7EF3F50DA059891892E863BF21950C4F0B1C9CDCDA806E093C79DF810F1C1CCC2C2C0C1C18EE58E67CCD21EC78229060606060600000000FFFF22900050231E45E63F03032B0B
310
0B8385853983A8882803FC883706745B50733F8289A504C0E906887A582240B40BA06710FDFE8DB808095FEEC68868CCBC454A0E253B21A03A0305E00C062499FFFF19A0174961CBF948518DA31D809C5000000000FFFFC2910070473CBA559C9C9C0C9696160CC222C2180B0E11CE460B3574CC802D9722620DBEF68F01E2
310
7136363606760E4869F0FFDF7F86EFD0DDCB7F615D455C399E014D0CA9304211243A3793570A608409466EC7C28787F97F78E44322114BCEC752026002880C000000FFFF62421640310CAB26747510CCC7C7C7606D65C52020C00F9FCE457637B61C8F33F7A3862D6A40407DC3C4C4C4C0C6CA063D48999D81919181E1D7EF
310
DF0C5FBF7E856F6743050412045AA2203E12D1CD279F8DDD2C8C9067606662869480CCCCF06C016B34FF4789726CB91EB3AA00000000FFFF624216C00D508B0E0C596822B0B4B0C04C04687EC3C00C68B91EAE101B0D730B03A45DC0CAC2C0CEC1CEC0C9C1C9C0066D20FEF8013D9FF8CF1F0606947904061C1180268E214F
310
049BEC9C8F1A34B8C17F68E43331B0B343EE0FFA8F35CB136E0BA08423C37F0600000000FFFFC2D30620A64440B2F4DF3F06616161063B5B5B06116161C86D97FF1950C214AB9719B188A2E456549A81014B95C0CEC6C0C9C1093FFDEAF7EFDF0C5FBF7D832C47877517498A5C0612D4E28F3AAC00470EC725011BC7676363
310
87DC1D8467CA1D11D1C494040C0C00000000FFFF6242B20543123B406B482044112581A50583A8A808C35FD88A60244FA1F6051851C4E1B18F192C986103B190013E68C40639B686939393818D9D8DE1FF7F4469F0E7F76F94E5E90351C4132EEE31FDFDFF3FE4185F56563606365644CE47CDCDD81B7CC4F40A1818FE3300
310
000000FFFF42540118D6A38636C1D2002AFFEFDF3F789B404C54147E4C1C5E40A014C0CCBD888084253C0606C85E46767636064E4E4E064E0E4E4877F1CF1F866FDFBE337CFBFA0D328A08730BB909018D4D8C3EF4A8C5270703FFFF43B6CEB1B2B232B0B1B1622DF629290960FA01000000FFFF22BA0AC0268FE20814C7FF
310
67E0E6E666B0B1B166D0D5D3656060408CF11304384A013C8AE17632FCFF0F1F38E2E0E060E0E4E284CC2C323232FCFE0369247EFDFA157E90328659C42404343641F7E1548CA31E80966C90862E2BFC8877A2231A6B22C1DD3B00000000FFFFAC5DC10E8020087D1496FF62FFFF27F6279DC4EA40A9B9691DF2E81E834D40
310
D08DC7B5F6F762B0D72164CC7E28DDC9E21C0C33BC5F2151405C7EFDFCBB6EDB0957A7304CE0912146397382040409889BCE3DB0B3D5B9BAF4E53DACE5081D074195DE9B773F908E31453E834A3E46CA38CAF04AFAA92BEF34C138010000FFFFA49D490AC0200C45BF53ADBD88F7BF4A4E934D4917D53A83D0BD311FBE2438
310
E0B3D828FF3BA6AF76074A29C41811C205220233FF5A047D7BE84FFEA4129B8926C66838EB70DCEE239267848D361AA7F7E95BF5977FD0649B9AB6D23EC66655D3184179529F8CB7151BA0DC7CA231A0317B689FD20F4235CB20F3010000FFFF9C5D410E80200CEB60CA1FF4FFEF7327BD007A980A2804632F1C6842C6BA84
310
4058B995D8DAA5CE83D01145E26897F080799EB08840441011B52721A8B93F39FA72A908E19A2182B5EAAFC3ACCFCCDE9F4E5A3E600D1B40FA31D68DEE76E748EB7E3DD4FDC0AEC11B6B303017EE5F37258FB118DE95D94EF65EEAF1C4010000FFFF945D310E80200C3CD4960FE0FFDFC7466483983A600902893AB134A470
310
6D2909DC3547C05BF9C707D0277388C07B8F2346103376E760D922848094531542A86FFF048019AE0ECDF863C76516086B21BED80827176EFE7C339DA9A045F9BA4E20A28754AEFAD077ED7F624057A6FC09450164A9F2F063E29911C421C9FBB23F075B26B617000000FFFFA49DB10E80200C44AF22984822FFFF97525714
310
87161263D5C191C0D6F6DA81DE1B7F57FACB3D118199915998B9F51026514A0B629CC1BC61CDAB40161B33CFCA01954AB292E3261F866C57E836931C084AE1701EF01E5EBFA277CA66D9C5FFB094DE12A610E0D453B911D32E99F9A10A15555CD40040D7EE8741CCB44881CD97503C54B915446B2EB0DFDD5BC4090000FFFF
310
9C9DBB0EC0200845B1AF38D6FFFFC3BAD9A94AB5C3151B13FB7496C59B1B09014EBB7FE88FD3AB70FCFDCC4C8BB5C421E4844662B148D29899B4D6E4565780C6654A58E1D19EE703BFF90FEC83938E0AEE1E783D6918294ED8511093801FC1DDDDBCA79EF7922788D82A0B89B9C7B3B45DA35EBAD2F320C28302A2881AAEBF
310
74F91BC16FC4AEEEE573000000FFFF8C9D3112C0200804CFA4C00FE4FF7F8C85A385A6C00BA3A3891D0515B31E5708ECB7801F28664A9252468C115C4CD365948AEA00EF052217724EB84350106AC181390826022B25F832149D4930C3F8AEC65718DCE958111B6D6B31CFBF11668EC7294CC3CFE5D63A78E489726F27DF81
310
59D197AF7C4709566671CC6BD1030000FFFFC25F059011E9C800725FDD7F9CE6200F2AB1B1B131080B0931FCFAF59BE1F397CF0C3F7EFC80F77D19991011C708AD0B20175A30206D58454A1338D300360958A9809418602B9418191998981991723CC2146400A90D18916846B83BFE334076E9324157E9C21203D6BA1E8922
310
2E97635383A70188C52C00000000FFFFA45D410E803008EB343E60FEFF8D9CF4A4010F3840B82CF134766BD26E6D960CAA05FCF0FC788B30338848874D2FDE0C2A15B673216CD87BD761D3F785F3781F6E4487597810F433A0E48FCE210D1E2943780822315789B5E16F8668882C929A492E3A13D19FD02C66034AFC8A617F
310
30E49823FCB3E44C301B006B1E00040F000000FFFFA45D410AC0200CCB70FEFFC36ED9A18DD43A85B19BD00AC5A451A810393EFF007DAD047D2CEBF1216B41065957D67AF6FF80F2236A579B55810EB848804082634706BD02BC061124AE697B41BAD2CC5D18BBFFA64DEC4A3117B66EEDCA744601E95759DFDCE39F542081
310
9DF300E0010000FFFF8C9DB10E80200C445F5D0447F9FFBF94C8A0E050080434C8D4846E57EE8EA5F72901337A9FFE1E28ECDFD9F9A1621886D4548B08D61A8C593510F1BA08A7CAC31D6FF505991C6899A0BC64919734F476D30824D15E05B8DCD71AE8C0AFAB6962D210AD1002FEF020E076C7B6593596C56BE43307EB43
310
EBFBA1F8C3021D446F83F1000000FFFF945DD10A80200C3C05B537F3FF7F33A145B91E863A92A4DED4C373703A41DCF6EB297826FA136396DA345B56964CAE80B1F3DC0C68912F4B08AD80159722398CE868D130D6D68C80DD233416A3C5544B9937B0F208CC5C504E0956A183403BC92FE5AB97B9CF39C33B8F9412E21AE1
310
9D93F9D5A374627C39C1FF0537BA89615471DD000000FFFF9C5D4D0B80200C7DAE79F16048FDFFFF57878475923EE8102E8BA8E82E53F6B6E7988FC96FA0FFA57F224208013146AD922F7BDF06C4D760206340D622A5041181C888AA2230339C7387D49CF6C7A1B2756CE8A2062CE93DB39681CE2CC823EFD665D58FB3F6EB
310
08AA70CE1DBC7CD0699ED1F51D8638A06D1A785F832DE3E46CC5E319D02F197E5EF3520714B636000000FFFFA49DCD0AC32010843FB591F42434EFFF7CE90F340924E0216A0F1AAB4528B4274157901D991945DC5313BF3FDCFF311642406B4DDF9FD9B6357174BDA25F37C37163B6CC0BE3758C95CB95C2FB088EB5364F93
310
42C6C443D6FC4E7709B0A4DDDE572AB5BB3DB58EF2C30A10EF27EDA238CA65635A1009019038E7B9DD1F3CA789E132608C412AF991C3961F6800FA8D258A989681AC7A53DC0B0000FFFF949D4F0B80200CC57F238F1D8AFAFE1FD0535114696087B26642D86EE243646F3CE61FB6E27B803FF21FCD1843DF772CEB92638A08
310
4FE704389B536F586B19C6E17EFE8534D388448410F0CEA301CE3B058A268A4775A493A77A99644E7F3B587F6ABB02A23A77B45F8A30CD136DD352C7CA5D2AB842B2D6B70AE48497247E4232040E000000FFFFC23B0E40EE1801B23E1E1E1E064E682900194F27A304F80F8978064606868F1F3F313C7BFE8CE1F7AFDF0CCC
310
2C2CA8C7A64049A40C89993B519563461E163EE69A4506AC09024D058AAB60B9FEDBB7EF0C3FBEFF6010F821C020C02F0059CB081D68C29ACB29A81630DB02FF51B530303000000000FFFF0300E3B6A64C96CFDE170000000049454E44AE426082504B010214000A00000800004042543C3DEE336E79000000790000001B00
310
000000000000000000000000000000006175746F6465736B2D64657369676E2D7061636B6167652E786D6C504B010214001400060808004042543C65017641AD000000260100001300000000000000000000000000B20000005B436F6E74656E745F54797065735D2E786D6C504B010214001400060808004042543CB6C5C2
310
CCE70000007C010000080000000000000000000000000090010000636F72652E786D6C504B010214001400060808004042543C55019EA25F0000007C00000007000000000000000000000000009D020000636E782E786D6C504B010214001400060808004042543CE8F224056E010000D40300000C00000000000000000000
310
000000210300006662782F636F72652E786D6C504B010214001400060808004042543C33325EC77D0000009D0000000B00000000000000000000000000B90400006662782F636E782E786D6C504B010214001400060808004042543C6D9CBE58290100001202000031000000000000000000000000005F0500006662782F46
310
303344363031422D383244332D343642382D423744382D4635353741334533443742322F636F72652E786D6C504B010214001400060808004042543C0E1CB5884B010000330300003000000000000000000000000000D70600006662782F46303344363031422D383244332D343642382D423744382D463535374133453344
310
3742322F636E782E786D6C504B010214001400060808004042543CFABBCAC8BE050000071100003400000000000000000000000000700800006662782F46303344363031422D383244332D343642382D423744382D4635353741334533443742322F6F626A656374732E786D6C504B010214001400060800004042543C0000
310
000000000000000000003500000000000000000000000000800E00006662782F46303344363031422D383244332D343642382D423744382D4635353741334533443742322F76657274696365732E62696E504B010214001400060808004042543CF270F13306000000040000003600000000000000000000000000D30E0000
310
6662782F46303344363031422D383244332D343642382D423744382D4635353741334533443742322F747269616E676C65732E62696E504B010214001400060800004042543C00000000000000000000000037000000000000000000000000002D0F00006662782F46303344363031422D383244332D343642382D42374438
310
2D4635353741334533443742322F617474726962757465732E62696E504B010214001400060808004042543C08DA0BD190000000410100003600000000000000000000000000820F00006662782F46303344363031422D383244332D343642382D423744382D4635353741334533443742322F6469726563746F72792E786D
310
6C504B010214001400060808004042543CFC04818DFB000000A00100003B00000000000000000000000000661000006662782F46303344363031422D383244332D343642382D423744382D4635353741334533443742322F7265736F75726365732F636F72652E786D6C504B010214001400060808004042543C2DEF20765E
310
0000007A0000003A00000000000000000000000000BA1100006662782F46303344363031422D383244332D343642382D423744382D4635353741334533443742322F7265736F75726365732F636E782E786D6C504B010214001400060808004042543C9BF2716BF6000000980100003D000000000000000000000000007012
310
00006662782F46303344363031422D383244332D343642382D423744382D4635353741334533443742322F7265736F75726365732F332F636F72652E786D6C504B010214001400060808004042543CDA6089D527010000C20100003C00000000000000000000000000C11300006662782F46303344363031422D383244332D
310
343642382D423744382D4635353741334533443742322F7265736F75726365732F332F636E782E786D6C504B010214000A00000800004042543C88E5759790410000904100004200000000000000000000000000421500006662782F46303344363031422D383244332D343642382D423744382D4635353741334533443742
310
322F7265736F75726365732F332F305F67656E657269632E706E67504B050600000000120012002D060000325700000000
  0
CELLSTYLEMAP
  5
1F3
102
{ACAD_REACTORS
330
1B4
102
}
330
1B4
100
AcDbCellStyleMap
 90
        3
300
CELLSTYLE
  1
TABLEFORMAT_BEGIN
 90
        5
170
     1
 91
        0
 92
    32768
 62
   151
 93
        1
300
CONTENTFORMAT
  1
CONTENTFORMAT_BEGIN
 90
        0
 91
        0
 92
      512
 93
        0
300

 40
0.0
140
1.0
 94
        4
 62
     0
340
1B5
144
5.0
309
CONTENTFORMAT_END
171
     1
301
MARGIN
  1
CELLMARGIN_BEGIN
 40
1.0
 40
1.0
 40
1.0
 40
1.0
 40
0.06
 40
0.06
309
CELLMARGIN_END
 94
        6
 95
        1
302
GRIDFORMAT
  1
GRIDFORMAT_BEGIN
 90
        0
 91
        1
 62
     0
 92
       -2
340
0
 93
        0
 40
0.045
309
GRIDFORMAT_END
 95
        2
302
GRIDFORMAT
  1
GRIDFORMAT_BEGIN
 90
        0
 91
        1
 62
     0
 92
       -2
340
0
 93
        1
 40
0.045
309
GRIDFORMAT_END
 95
        4
302
GRIDFORMAT
  1
GRIDFORMAT_BEGIN
 90
        0
 91
        1
 62
     0
 92
       -2
340
0
 93
        0
 40
0.045
309
GRIDFORMAT_END
 95
        8
302
GRIDFORMAT
  1
GRIDFORMAT_BEGIN
 90
        0
 91
        1
 62
     0
 92
       -2
340
0
 93
        0
 40
0.045
309
GRIDFORMAT_END
 95
       16
302
GRIDFORMAT
  1
GRIDFORMAT_BEGIN
 90
        0
 91
        1
 62
     0
 92
       -2
340
0
 93
        1
 40
0.045
309
GRIDFORMAT_END
 95
       32
302
GRIDFORMAT
  1
GRIDFORMAT_BEGIN
 90
        0
 91
        1
 62
     0
 92
       -2
340
0
 93
        0
 40
0.045
309
GRIDFORMAT_END
309
TABLEFORMAT_END
  1
CELLSTYLE_BEGIN
 90
        1
 91
        1
300
_TITLE
309
CELLSTYLE_END
300
CELLSTYLE
  1
TABLEFORMAT_BEGIN
 90
        5
170
     1
 91
        0
 92
        0
 62
   257
 93
        1
300
CONTENTFORMAT
  1
CONTENTFORMAT_BEGIN
 90
        0
 91
        0
 92
      512
 93
        0
300

 40
0.0
140
1.0
 94
        4
 62
     0
340
1B5
144
2.5
309
CONTENTFORMAT_END
171
     1
301
MARGIN
  1
CELLMARGIN_BEGIN
 40
1.0
 40
1.0
 40
1.0
 40
1.0
 40
0.06
 40
0.06
309
CELLMARGIN_END
 94
        6
 95
        1
302
GRIDFORMAT
  1
GRIDFORMAT_BEGIN
 90
        0
 91
        1
 62
     0
 92
       -2
340
0
 93
        1
 40
0.045
309
GRIDFORMAT_END
 95
        2
302
GRIDFORMAT
  1
GRIDFORMAT_BEGIN
 90
        0
 91
        1
 62
     0
 92
       -2
340
0
 93
        1
 40
0.045
309
GRIDFORMAT_END
 95
        4
302
GRIDFORMAT
  1
GRIDFORMAT_BEGIN
 90
        0
 91
        1
 62
     0
 92
       -2
340
0
 93
        1
 40
0.045
309
GRIDFORMAT_END
 95
        8
302
GRIDFORMAT
  1
GRIDFORMAT_BEGIN
 90
        0
 91
        1
 62
     0
 92
       -2
340
0
 93
        1
 40
0.045
309
GRIDFORMAT_END
 95
       16
302
GRIDFORMAT
  1
GRIDFORMAT_BEGIN
 90
        0
 91
        1
 62
     0
 92
       -2
340
0
 93
        1
 40
0.045
309
GRIDFORMAT_END
 95
       32
302
GRIDFORMAT
  1
GRIDFORMAT_BEGIN
 90
        0
 91
        1
 62
     0
 92
       -2
340
0
 93
        1
 40
0.045
309
GRIDFORMAT_END
309
TABLEFORMAT_END
  1
CELLSTYLE_BEGIN
 90
        2
 91
        1
300
_HEADER
309
CELLSTYLE_END
300
CELLSTYLE
  1
TABLEFORMAT_BEGIN
 90
        5
170
     1
 91
        0
 92
        0
 62
   257
 93
        1
300
CONTENTFORMAT
  1
CONTENTFORMAT_BEGIN
 90
        0
 91
        0
 92
      512
 93
        0
300

 40
0.0
140
1.0
 94
        4
 62
     0
340
1A2
144
2.0
309
CONTENTFORMAT_END
171
     1
301
MARGIN
  1
CELLMARGIN_BEGIN
 40
1.0
 40
1.0
 40
1.0
 40
1.0
 40
0.06
 40
0.06
309
CELLMARGIN_END
 94
        6
 95
        1
302
GRIDFORMAT
  1
GRIDFORMAT_BEGIN
 90
        0
 91
        1
 62
     0
 92
       -2
340
0
 93
        1
 40
0.045
309
GRIDFORMAT_END
 95
        2
302
GRIDFORMAT
  1
GRIDFORMAT_BEGIN
 90
        0
 91
        1
 62
     0
 92
       -2
340
0
 93
        1
 40
0.045
309
GRIDFORMAT_END
 95
        4
302
GRIDFORMAT
  1
GRIDFORMAT_BEGIN
 90
        0
 91
        1
 62
     0
 92
       -2
340
0
 93
        1
 40
0.045
309
GRIDFORMAT_END
 95
        8
302
GRIDFORMAT
  1
GRIDFORMAT_BEGIN
 90
        0
 91
        1
 62
     0
 92
       -2
340
0
 93
        1
 40
0.045
309
GRIDFORMAT_END
 95
       16
302
GRIDFORMAT
  1
GRIDFORMAT_BEGIN
 90
        0
 91
        1
 62
     0
 92
       -2
340
0
 93
        1
 40
0.045
309
GRIDFORMAT_END
 95
       32
302
GRIDFORMAT
  1
GRIDFORMAT_BEGIN
 90
        0
 91
        1
 62
     0
 92
       -2
340
0
 93
        1
 40
0.045
309
GRIDFORMAT_END
309
TABLEFORMAT_END
  1
CELLSTYLE_BEGIN
 90
        3
 91
        2
300
_DATA
309
CELLSTYLE_END
  0
CELLSTYLEMAP
  5
1F4
102
{ACAD_REACTORS
330
1B9
102
}
330
1B9
100
AcDbCellStyleMap
 90
        3
300
CELLSTYLE
  1
TABLEFORMAT_BEGIN
 90
        5
170
     1
 91
        0
 92
    32768
 62
   257
 93
        1
300
CONTENTFORMAT
  1
CONTENTFORMAT_BEGIN
 90
        0
 91
        0
 92
      512
 93
        0
300

 40
0.0
140
1.0
 94
        5
 62
     0
340
1B5
144
5.0
309
CONTENTFORMAT_END
171
     1
301
MARGIN
  1
CELLMARGIN_BEGIN
 40
1.0
 40
1.0
 40
1.0
 40
1.0
 40
0.06
 40
0.06
309
CELLMARGIN_END
 94
        6
 95
        1
302
GRIDFORMAT
  1
GRIDFORMAT_BEGIN
 90
        0
 91
        1
 62
     0
 92
       -2
340
0
 93
        0
 40
0.045
309
GRIDFORMAT_END
 95
        2
302
GRIDFORMAT
  1
GRIDFORMAT_BEGIN
 90
        0
 91
        1
 62
     0
 92
       -2
340
0
 93
        0
 40
0.045
309
GRIDFORMAT_END
 95
        4
302
GRIDFORMAT
  1
GRIDFORMAT_BEGIN
 90
        0
 91
        1
 62
     0
 92
       -2
340
0
 93
        0
 40
0.045
309
GRIDFORMAT_END
 95
        8
302
GRIDFORMAT
  1
GRIDFORMAT_BEGIN
 90
        0
 91
        1
 62
     0
 92
       -2
340
0
 93
        0
 40
0.045
309
GRIDFORMAT_END
 95
       16
302
GRIDFORMAT
  1
GRIDFORMAT_BEGIN
 90
        0
 91
        1
 62
     0
 92
       -2
340
0
 93
        0
 40
0.045
309
GRIDFORMAT_END
 95
       32
302
GRIDFORMAT
  1
GRIDFORMAT_BEGIN
 90
        0
 91
        1
 62
     0
 92
       -2
340
0
 93
        0
 40
0.045
309
GRIDFORMAT_END
309
TABLEFORMAT_END
  1
CELLSTYLE_BEGIN
 90
        1
 91
        1
300
_TITLE
309
CELLSTYLE_END
300
CELLSTYLE
  1
TABLEFORMAT_BEGIN
 90
        5
170
     1
 91
        0
 92
        0
 62
   257
 93
        1
300
CONTENTFORMAT
  1
CONTENTFORMAT_BEGIN
 90
        0
 91
        0
 92
      512
 93
        0
300

 40
0.0
140
1.0
 94
        5
 62
     0
340
1A2
144
2.0
309
CONTENTFORMAT_END
171
     1
301
MARGIN
  1
CELLMARGIN_BEGIN
 40
1.0
 40
1.0
 40
1.0
 40
1.0
 40
0.06
 40
0.06
309
CELLMARGIN_END
 94
        6
 95
        1
302
GRIDFORMAT
  1
GRIDFORMAT_BEGIN
 90
        0
 91
        1
 62
     0
 92
       -2
340
0
 93
        0
 40
0.045
309
GRIDFORMAT_END
 95
        2
302
GRIDFORMAT
  1
GRIDFORMAT_BEGIN
 90
        0
 91
        1
 62
     0
 92
       -2
340
0
 93
        0
 40
0.045
309
GRIDFORMAT_END
 95
        4
302
GRIDFORMAT
  1
GRIDFORMAT_BEGIN
 90
        0
 91
        1
 62
     0
 92
       -2
340
0
 93
        0
 40
0.045
309
GRIDFORMAT_END
 95
        8
302
GRIDFORMAT
  1
GRIDFORMAT_BEGIN
 90
        0
 91
        1
 62
     0
 92
       -2
340
0
 93
        0
 40
0.045
309
GRIDFORMAT_END
 95
       16
302
GRIDFORMAT
  1
GRIDFORMAT_BEGIN
 90
        0
 91
        1
 62
     0
 92
       -2
340
0
 93
        0
 40
0.045
309
GRIDFORMAT_END
 95
       32
302
GRIDFORMAT
  1
GRIDFORMAT_BEGIN
 90
        0
 91
        1
 62
     0
 92
       -2
340
0
 93
        0
 40
0.045
309
GRIDFORMAT_END
309
TABLEFORMAT_END
  1
CELLSTYLE_BEGIN
 90
        2
 91
        1
300
_HEADER
309
CELLSTYLE_END
300
CELLSTYLE
  1
TABLEFORMAT_BEGIN
 90
        5
170
     1
 91
        0
 92
        0
 62
   257
 93
        1
300
CONTENTFORMAT
  1
CONTENTFORMAT_BEGIN
 90
        0
 91
        0
 92
      512
 93
        0
300

 40
0.0
140
1.0
 94
        2
 62
     0
340
1A2
144
2.0
309
CONTENTFORMAT_END
171
     1
301
MARGIN
  1
CELLMARGIN_BEGIN
 40
1.0
 40
1.0
 40
1.0
 40
1.0
 40
0.06
 40
0.06
309
CELLMARGIN_END
 94
        6
 95
        1
302
GRIDFORMAT
  1
GRIDFORMAT_BEGIN
 90
        0
 91
        1
 62
     0
 92
       -2
340
0
 93
        0
 40
0.045
309
GRIDFORMAT_END
 95
        2
302
GRIDFORMAT
  1
GRIDFORMAT_BEGIN
 90
        0
 91
        1
 62
     0
 92
       -2
340
0
 93
        0
 40
0.045
309
GRIDFORMAT_END
 95
        4
302
GRIDFORMAT
  1
GRIDFORMAT_BEGIN
 90
        0
 91
        1
 62
     0
 92
       -2
340
0
 93
        0
 40
0.045
309
GRIDFORMAT_END
 95
        8
302
GRIDFORMAT
  1
GRIDFORMAT_BEGIN
 90
        0
 91
        1
 62
     0
 92
       -2
340
0
 93
        0
 40
0.045
309
GRIDFORMAT_END
 95
       16
302
GRIDFORMAT
  1
GRIDFORMAT_BEGIN
 90
        0
 91
        1
 62
     0
 92
       -2
340
0
 93
        0
 40
0.045
309
GRIDFORMAT_END
 95
       32
302
GRIDFORMAT
  1
GRIDFORMAT_BEGIN
 90
        0
 91
        1
 62
     0
 92
       -2
340
0
 93
        0
 40
0.045
309
GRIDFORMAT_END
309
TABLEFORMAT_END
  1
CELLSTYLE_BEGIN
 90
        3
 91
        2
300
_DATA
309
CELLSTYLE_END
  0
ACDBASSOCGEOMDEPENDENCY
  5
1D4
330
1D3
100
AcDbAssocDependency
 90
        2
 90
        0
290
     1
290
     1
290
     1
290
     1
 90
   -10000
330
16F
290
     0
330
0
330
0
360
0
 90
       50
100
AcDbAssocGeomDependency
 90
        0
290
     1
  1
AcDbAssocSingleEdgePersSubentId
290
     0
  0
ACDBASSOCGEOMDEPENDENCY
  5
1D5
330
1D3
100
AcDbAssocDependency
 90
        2
 90
        0
290
     1
290
     1
290
     1
290
     1
 90
   -10000
330
FA
290
     0
330
0
330
1D6
360
0
 90
       51
100
AcDbAssocGeomDependency
 90
        0
290
     1
  1
AcDbAssocSimplePersSubentId
 90
        1
 90
        3
 90
       -1
290
     0
290
     0
  0
ACDBASSOCGEOMDEPENDENCY
  5
1D6
330
1D3
100
AcDbAssocDependency
 90
        2
 90
        0
290
     1
290
     1
290
     1
290
     1
 90
   -10000
330
FA
290
     0
330
1D5
330
0
360
0
 90
       52
100
AcDbAssocGeomDependency
 90
        0
290
     1
  1
AcDbAssocSimplePersSubentId
 90
        1
 90
        6
 90
      -90
290
     0
290
     0
  0
ENDSEC
  0
SECTION
  2
ACDSDATA
 70
     2
 71
     6
  0
ACDSSCHEMA
 90
        0
  1
AcDb_Thumbnail_Schema
  2
AcDbDs::ID
280
    10
 91
        8
  2
Thumbnail_Data
280
    15
 91
        0
101
ACDSRECORD
 95
        0
 90
        1
  2
AcDbDs::TreatedAsObjectData
280
     1
291
     1
101
ACDSRECORD
 95
        0
 90
        2
  2
AcDbDs::Legacy
280
     1
291
     1
101
ACDSRECORD
  1
AcDbDs::ID
 90
        3
  2
AcDs:Indexable
280
     1
291
     1
101
ACDSRECORD
  1
AcDbDs::ID
 90
        4
  2
AcDbDs::HandleAttribute
280
     7
282
     1
  0
ACDSSCHEMA
 90
        1
  1
AcDbDs::TreatedAsObjectDataSchema
  2
AcDbDs::TreatedAsObjectData
280
     1
 91
        0
  0
ACDSSCHEMA
 90
        2
  1
AcDbDs::LegacySchema
  2
AcDbDs::Legacy
280
     1
 91
        0
  0
ACDSSCHEMA
 90
        3
  1
AcDbDs::IndexedPropertySchema
  2
AcDs:Indexable
280
     1
 91
        0
  0
ACDSSCHEMA
 90
        4
  1
AcDbDs::HandleAttributeSchema
  2
AcDbDs::HandleAttribute
280
     7
 91
        1
284
     1
  0
ACDSRECORD
 90
        0
  2
AcDbDs::ID
280
    10
320
17A
  2
Thumbnail_Data
280
    15
 94
     1287
310
89504E470D0A1A0A0000000D49484452000001000000007108030000000DA58D8400000300504C5445FFFFFF000000C8C8C80000000000000000000000000000000000000000000000000000330000660000990000CC0000FF0033000033330033660033990033CC0033FF0066000066330066660066990066CC0066FF0099
310
000099330099660099990099CC0099FF00CC0000CC3300CC6600CC9900CCCC00CCFF00FF0000FF3300FF6600FF9900FFCC00FFFF3300003300333300663300993300CC3300FF3333003333333333663333993333CC3333FF3366003366333366663366993366CC3366FF3399003399333399663399993399CC3399FF33CC00
310
33CC3333CC6633CC9933CCCC33CCFF33FF0033FF3333FF6633FF9933FFCC33FFFF6600006600336600666600996600CC6600FF6633006633336633666633996633CC6633FF6666006666336666666666996666CC6666FF6699006699336699666699996699CC6699FF66CC0066CC3366CC6666CC9966CCCC66CCFF66FF0066
310
FF3366FF6666FF9966FFCC66FFFF9900009900339900669900999900CC9900FF9933009933339933669933999933CC9933FF9966009966339966669966999966CC9966FF9999009999339999669999999999CC9999FF99CC0099CC3399CC6699CC9999CCCC99CCFF99FF0099FF3399FF6699FF9999FFCC99FFFFCC0000CC00
310
33CC0066CC0099CC00CCCC00FFCC3300CC3333CC3366CC3399CC33CCCC33FFCC6600CC6633CC6666CC6699CC66CCCC66FFCC9900CC9933CC9966CC9999CC99CCCC99FFCCCC00CCCC33CCCC66CCCC99CCCCCCCCCCFFCCFF00CCFF33CCFF66CCFF99CCFFCCCCFFFFFF0000FF0033FF0066FF0099FF00CCFF00FFFF3300FF3333
310
FF3366FF3399FF33CCFF33FFFF6600FF6633FF6666FF6699FF66CCFF66FFFF9900FF9933FF9966FF9999FF99CCFF99FFFFCC00FFCC33FFCC66FFCC99FFCCCCFFCCFFFFFF00FFFF33FFFF66FFFF99FFFFCCFFFFFF0000000D0D0D1A1A1A2828283535354343435050505D5D5D6B6B6B787878868686939393A1A1A1AEAEAEBB
310
BBBBC9C9C9D6D6D6E4E4E4F1F1F1FFFFFF000000000000000000000000000000000000000000000000000000000000B0E2D235000001C24944415478DAED9A497283301000FD0DFD8EA7BB74D691B987C15A5962418251A26EA7C4A6B5198F8D2B8F0700000000000000000000000000000000000000000000005463FE0617
310
0AE83E0210800004200001084000021080001E86FA7C184200021080802A64B13DD86C794EF61B48830244A725A21BD95E979E0F972594A17A28B3238987790F263F2B120F6E11207E057E1E6937519C3266FFDAFA725E6F7D251330739F00F956C07A85EF2AEDE9D9EC2BB9B952409C4EBAEB3502CC6A777D8B37EABC0987
310
BB054895005325C06C04BA3195B190A59ECF0830297B2D735012E0D3B7BC32755A736C566A99AB077545825C0445CA976193E7DEB9FD2722A0CCDB759F0C3F47EAFABA5AC066FC75F34528BD334DB97E39CB7FF92688000420A06F013C0EF30F12FC2C8E000420000108400002108000042000010840000210800004200001
310
08400002BA15307428C01D617417D148040CC360A7B9D867C05AFBB4A32E7B54EC78005794FA0AEDE7EECA41DA1460E71DEBC2FA4F0B70AF3F17DA6B8FE5200D0AB0D64FD139BF9663029601A0656CAF7D16833424E0A102E2C454C0F83B02A622099814148334160169627A97E2FACF0A70FE6D9F04683414837C0134D373
310
6C62A602DF0000000049454E44AE426082
  0
ENDSEC
  0
EOF
